+  Diymusic.org
|-+  ΜΟΥΣΙΚΗ» Ταμπλατούρες» Σαδίκης Ντίνος
Username:
Password:
Αποστολέας Θέμα: Σαδίκης Ντίνος  (Αναγνώστηκε 1532 φορές)
krana
Global Moderator
Junior forumist
*****
Αποσυνδεδεμένος Αποσυνδεδεμένος

Μηνύματα: 154


« στις: Ιανουάριος 15, 2016, 03:54:08 πμ »

Πρέπει να μάθω πια να ζω

Μουσική/Στίχοι: Ντίνος Σαδίκης
Δίσκος: Μολυβένιες ιστορίες (1994)



G Em C D x2

Intro (G Em C D x2)

Με μαζανθρώπους που δεν μπόρεσαν να σβήσουνε το χθες
με αγωνίες που μεγάλωσαν και γίνανε γιορτές
με τα τρελόχαρτα να βγαίνουνε βολτούλα στις σκοπιές
να ανεμίζουν εμβατήρια για φάλτσους θεατές

με τα τρελόχαρτα να βγαίνουνε βολτούλα στις σκοπιές
να ανεμίζουν εμβατήρια για φάλτσους θεατές

Παύση 9 μέτρων

Σβήσε, τα λαμπιόνια τώρα κλείσε
τη βιτρίνα μόνο σβήσε
πρέπει να μάθω πια να ζω
πρέπει να μάθω πια να ζω
πρέπει να μάθω πια


Με ακροβάτες που δεν μπόρεσαν και μείναν στο σκοινί
θολές φιγούρες που ξεμείνανε σε άσπρη αναμονή
με το κορμί μου να ζητάει οδηγό την ηδονή
πίσω από τζάμι να σφυρίζει η αλήθεια μου γυμνή

με το κορμί μου να ζητάει οδηγό την ηδονή
πίσω από τζάμι να σφυρίζει η αλήθεια μου γυμνή


Σβήσε, τα λαμπιόνια τώρα κλείσε
τη βιτρίνα μόνο σβήσε
τη βελόνα τώρα φτύσε
πρέπει να μάθω πια να ζω
πρέπει να μάθω πια να ζω
πρέπει να μάθω πια



Intro:
e|--10--8--7--5--3-3-5--7--8---8--10--8-10-8-7-5--7--|
B|---------------------------------------------------|
G|---------------------------------------------------|
0:12

e|--7--3-3--2--0-------0--2--3---5--7--8-7-5-3-2--3--|
B|----------------3-3--------------------------------|
G|---------------------------------------------------|
0:17


Riff 1:
e|--10--10--10--10--8--7---8---7h8p7--5--3-3-5--7-8-7--|
B|-----------------------------------------------------|
G|-----------------------------------------------------|
0:28


Riff 2:
e|--10-10-8--7-7-5--3-3-5---8---8--10--8-7-5-3-2--3--|
B|---------------------------------------------------|
G|---------------------------------------------------|
0:38

Riff 2:
e|--10-10-8--7-7--------------8---8--10--8-7------------|
B|---------------10--8-8-10------------------10-8-7--8--|
G|------------------------------------------------------|
0:38


Riff 3:
e|-------7-8-10-------7-8-7-----8---7h8p7-------------7-8-7--|
B|--8-10---------8-10--------8------------10--8-8-10---------|
G|-----------------------------------------------------------|
0:48

Riff 4:
e|--10--10--10--10--8-8-7---8--8-8-7h8p7-------------------|
B|----------------------------------------10--8-8-7--8--8--|
G|---------------------------------------------------------|
0:58




Σελίδες: [1]   Πάνω
  Εκτύπωση  
 
Μεταπήδηση σε: