+ 
|-+  ΜΟΥΣΙΚΗ» Ταμπλατούρες» Propaganda Collective
Username:
Password:
Αποστολέας Θέμα: Propaganda Collective  (Αναγνώστηκε 2420 φορές)
krana
Global Moderator
Junior forumist
*****
Αποσυνδεδεμένος Αποσυνδεδεμένος

Μηνύματα: 154


« στις: Απρίλιος 21, 2014, 08:59:42 μμ »

Περιεχόμενα:

« Τελευταία τροποποίηση: Απρίλιος 21, 2014, 09:06:55 μμ από krana »
krana
Global Moderator
Junior forumist
*****
Αποσυνδεδεμένος Αποσυνδεδεμένος

Μηνύματα: 154


« Απάντηση #1 στις: Απρίλιος 21, 2014, 09:02:30 μμ »

Μικρές στιγμές (Propaganda Collective)


Intro (Cm)

                                Cm             Fm
Σε δυο συρμάτινες χορδές πατάω απόψε
            Db7 G7         Cm
σαν ακροβάτης ξοφλημένος
Σε μια σχεδία ξύλινη σαλτάρω απόψε
σαν πειρατής φαντασιωμένος

                   Fm                            Cm
Στέλνω στο διάολο απόψε την σιγουριά μου
            Db7 G7            Cm
μια και καλή-ή να χρεωθώ
Κλείνω το αύριο από ρωγμές να ξεδιψάσω
να προσπεράσω τις σιωπές


Με μία σκέψη αλλοτινή βρήκα τον δρόμο που οδηγεί
εκεί που ανθίζουνε οι μνήμες
Με δυο κουβέντες καθαρές βρίσκω τον χρόνο
και αρματώνομαι μικρές στιγμές

Μικρές στιγμές, μικρές στιγμές, μικρές στιγμές
Μικρές στιγμές, μικρές στιγμές, μικρές στιγμές



Intro:
    Cm
e|-----3~-----3-----3~-----3-----|
B|-----4~-----4-----4~-----4-----|
G|-----5~-----5-----5~-----5-----|
D|-----5~-----5-----5~-----5-----|
A|--3--3~-----3--3--3~-----3--3--|
E|---------3------------3--------|
0:25

Verse:
    Cm                         Fm
e|-----3------3-------3-----------1-------1-------1-------1--|
B|-----4------4-------4-----------1-------1-------1-------1--|
G|-----5------5-------5-----------1-------1-------1-------1--|
D|-----5------5-------5-----------3-------3-------3-------3--|
A|--3--3--2---3--2-3--3-----------3----3--3-------3----3--3--|
E|---------3-------------3--2--1-----1-------0-1-----1-------|
0:32/0:51

      Db7            G#7          Cm
e|-------4------4-------3------3-----3------3-------|
B|-------6------6-------3------3-----4------4-------|
G|-------4------4-------4------4-----5------5-------|
D|-------6------6-------3------3-----5------5-------|
A|--3-4--4--3---4-------5---5--5--3--3--2---3--2-3--|
E|-----------4-----2-3-----3-------------3----------|
0:40/0:59

Refrain:
             Fm                         Cm
e|--------------1------1-------1-----1-----3------3-------3--|
B|--------------1------1-------1-----1-----4------4-------4--|
G|--------------1------1-------1-----1-----5------5-------5--|
D|--------------3------3-------3-----3-----5------5-------5--|
A|--3-----------3---3--3-------3--3--3--3--3--2---3--2-3--3--|
E|-----3--2--1-----1------0-1------------------3-------------|
1:06/1:23

          Db#            G#7             Cm
e|-----------4------4-------3-------3-------3------3-------|
B|-----------6------6-------3-------3-------4------4-------|
G|-----------4------4-------4-------4-------5------5-------|
D|--0--------6------6-------3-------3-------5------5-------|
A|-----3--4--4--3---4-------5----5--5--2-3--3--2---3--2-3--|
E|---------------4-----2-3-----2----------------3----------|
1:14/1:31




« Τελευταία τροποποίηση: Απρίλιος 21, 2014, 09:05:24 μμ από krana »
Σελίδες: [1]   Πάνω
  Εκτύπωση  
 
Μεταπήδηση σε: