+ 
|-+  ΜΟΥΣΙΚΗ» Ταμπλατούρες» Πασχαλίδης Μιλτιάδης
Username:
Password:
Αποστολέας Θέμα: Πασχαλίδης Μιλτιάδης  (Αναγνώστηκε 2301 φορές)
krana
Global Moderator
Junior forumist
*****
Αποσυνδεδεμένος Αποσυνδεδεμένος

Μηνύματα: 154


« στις: Φεβρουάριος 02, 2014, 06:48:50 μμ »

Νανούρισμα (Μιλτιάδης Πασχαλίδης)

Μουσική: Μιλτιάδης Πασχαλίδης
Στίχοι: Άλκης Αλκαίος
Δίσκος: Κακές συνήθειες (1998)



Intro ( D | D | C | D Em | Em || D | D | C | Bm | Em )

             D                                      Em
Τι παραμύθι να σου πω ποια ιστορία
                G                      B7               C  C G
να κοιμηθείς και να 'χεις όνειρα γλυκά
              Am                 Em          D
όλη η ζωή μου μια μεγάλη απορία
                  Em              C    D        Em
που θα λυθεί όταν θα φύγω μακριά

Intro ( D | D | C | Bm | Em )

Σ' αυτόν το κόσμο όλα έχουν παλιώσει
και αυτό το σπίτι οχυρό χωρίς κλειδιά
παγωνιά στήσαν στο μπαλκόνι τους λημέρι
και μια τσιγγάνα στην αυλή τους τραγουδά

                  G                  D                  Em
Πάψε να κλαις για ό,τι πέρασε σωστά
                 G                     D                    Em
κλείσε τα μάτια σου και κοίταξε μπροστά
            Am                F                 Em
πάμε μαζί και με βοριά και με νοτιά
            Em               Dm              Em
εδώ αρχίζει και τελειώνει η φωτιά

Intro ( D | D | C | D Em | Em || D | D | C | Bm | Em )

Τι παραμύθι να σου πω ποια ιστορία
άγγελοι καίνε τα φτερά τους στις γωνίες
και 'γω το θαύμα περιμένω μες στα κρύα
απ' τους αλήτες τα παιδιά τους ποιητές

Πάψε να κλαις...

Εδώ αρχίζει και τελειώνει η φωτιά

Saxophone Solo



Intro:
                D                  C   D      Em      
e|--5-7-p5-------------5-7-5----------------5---7--|
B|--------8-7-5-5-h7---------8-7-5-7h8---7-8--8----|
G|-------------------------------------------------|
D|-------------------------------------------------|
A|-------------------------------------------------|
E|-------------------------------------------------|
0:00

                D                  C     Bm     Em
e|--5-7-p5-------------5-7-5----------------10-------12--|
B|--------8-7-5-5-h7---------8-7-5-7h8---7------5--------|
G|-------------------------------------------------------|
D|-------------------------------------------------------|
A|-------------------------------------------------------|
E|-------------------------------------------------------|
0:10



Εμπνευσμένο από στίχο του Σεφέρη: "Ό,τι πέρασε πέρασε σωστά./Κι εκείνα ακόμη που δεν πέρασαν/πρέπει να καούν"
« Τελευταία τροποποίηση: Φεβρουάριος 02, 2014, 07:07:22 μμ από krana »
Σελίδες: [1]   Πάνω
  Εκτύπωση  
 
Μεταπήδηση σε: