+ 
|-+  ΜΟΥΣΙΚΗ» Ταμπλατούρες» Ξαρχάκος Σταύρος
Username:
Password:
Αποστολέας Θέμα: Ξαρχάκος Σταύρος  (Αναγνώστηκε 2777 φορές)
krana
Global Moderator
Junior forumist
*****
Αποσυνδεδεμένος Αποσυνδεδεμένος

Μηνύματα: 154


« στις: Δεκέμβριος 28, 2013, 07:28:34 μμ »

Περιεχόμενα:

« Τελευταία τροποποίηση: Δεκέμβριος 28, 2013, 07:46:59 μμ από krana »
krana
Global Moderator
Junior forumist
*****
Αποσυνδεδεμένος Αποσυνδεδεμένος

Μηνύματα: 154


« Απάντηση #1 στις: Δεκέμβριος 28, 2013, 07:43:47 μμ »

Το δίχτυ (Τάκης Μπίνης)

Μουσική: Στάυρος Ξαρχάκος
Στίχοι: Νίκος Γκάτσος



Intro (Fm D# C# G# | A#m   Fm   | Fm D#   C# | C# C A#m C C7 Fm C  Fm)

             Fm                    A#m         Fm
Κάθε φορά που ανοίγεις δρόμο στη ζωή
             D#                              G#
μην περιμένεις να σε βρει το μεσονύχτι
           A#m                                 Fm
Έχε τα μάτια σου ανοιχτά βράδυ-πρωί
                 C
γιατί μπροστά σου πάντα απλώνεται ένα δίχτυ
           A#m                                 Fm
Έχε τα μάτια σου ανοιχτά βράδυ-πρωί
                 C                                      Fm
γιατί μπροστά σου πάντα απλώνεται ένα δίχτυ

      C#
Αν κάποτε στα βρόχια του πιαστείς
     D#                                   G#
κανείς δεν θα μπορέσει να σε βγάλει
     A#m                                   Fm
Μονάχος βρες την άκρη της κλωστής
        C
κι αν είσαι τυχερός ξεκίνα πάλι

Αν κάποτε...


Intro

Αυτό το δίχτυ έχει ονόματα βαριά
που είναι γραμμένα σ’ εφτασφράγιστο κιτάπι
Άλλοι το λεν του κάτω κόσμου πονηριά
κι άλλοι το λεν της πρώτης άνοιξης αγάπη

Αν κάποτε... x2



Intro:
    Fm       D#                 C#                     G#
d|--6-6-6-6--5h6-5h6-5h6-5h6p5--3h5-3h5-3h5-3h5p3--2-3-6--5-3----|
A|------------------------------------------------------------6--|
D|---------------------------------------------------------------|
0:00
              A#m                                       Fm
d|--3------------------------------3h5-3h5-3--3h5p3-----3--------------|
A|----6-4-3-6-4h6-4h6-4--6-4-3-4-6------------------6-4---3-3-3-2-4-3--|
D|---------------------------------------------------------------------|
0:07
    Fm       D#                  C#
d|--6-6-6-6--5-5-6--8---5-5-5-5--3-3-5-6--|
A|--8-8-8-8--6-6-8-10---6-6-6-6--4-4-6-8--|
D|----------------------------------------|
0:13
    C#      C     A#m   C     C7    Fm C  Fm
d|--5h6-5-3-2-3-2---2------------------2--3--|
A|----------------4---4-3-4-3-1--------1--3--|
D|------------------------------6-5-3--2--3--|
0:20


Intro:
    Fm       D#       C#          G#
e|--4-4-4-4--3-3-3-3--------------4-3------|
B|--6-6-6-6--4-4-4-4--6-6-6-6-5-6-6-4-6-4--|
G|--------------------6-6-6-6-5-6-----6-5--|
D|-----------------------------------------|
A|-----------------------------------------|
E|-----------------------------------------|
0:00
              A#m                         Fm
e|-------------------------------------------------------|
B|--6-4-2-1-4-2-2-2-4-2-1-2-4-6-6-6-6-4---6--------------|
G|------------3-3-3-----------6-6-6-----6---5-5-5-4-6-5--|
D|-------------------------------------------------------|
A|-------------------------------------------------------|
E|-------------------------------------------------------|
0:07
    Fm       D#                C#
e|--4-4-4-4--3-3-4-6--3-3-3-3--1-1-3-4--|
B|--6-6-6-6--4-4-6-8--4-4-4-4--2-2-4-6--|
G|--------------------------------------|
D|--------------------------------------|
A|--------------------------------------|
E|--------------------------------------|
0:13
    C#    C     A#m   C     C7    Fm C  Fm
e|--4-3------------------------------------|
B|--6-4-6-5-6-5-2-5-2-1-2-1----------------|
G|------6-5-6-5-3-5-3-------3-1-0----------|
D|--------------------------------3--2--3--|
A|-----------------------------------3--3--|
E|-----------------------------------------|
0:20



σημ.1: η ταμπλατούρα είναι γραμμένη έτσι ώστε ένα μέρος της να παίζεται σε δύο χορδές ταυτόχρονα. για μεγαλύτερη ευκολία μπορεί να παραληφθεί η μία χορδή κι η μελωδία να παιχτεί στην πιο ψιλή από τις δύο.

σημ.2: υπάρχει μια ακόμα απόδοση του τραγουδιού για τρίχορδα από τον χρήστη saltadoros23, εδώ.



« Τελευταία τροποποίηση: Αύγουστος 10, 2014, 12:54:33 πμ από krana »
Σελίδες: [1]   Πάνω
  Εκτύπωση  
 
Μεταπήδηση σε: