+ 
|-+  ΜΟΥΣΙΚΗ» Ταμπλατούρες» Dropkick Murphys
Username:
Password:
Αποστολέας Θέμα: Dropkick Murphys  (Αναγνώστηκε 2569 φορές)
krana
Global Moderator
Junior forumist
*****
Αποσυνδεδεμένος Αποσυνδεδεμένος

Μηνύματα: 154


« στις: Δεκέμβριος 13, 2013, 10:20:54 μμ »

Περιεχόμενα:

krana
Global Moderator
Junior forumist
*****
Αποσυνδεδεμένος Αποσυνδεδεμένος

Μηνύματα: 154


« Απάντηση #1 στις: Δεκέμβριος 13, 2013, 10:21:04 μμ »

Johnny I Hardly Knew Ya (Dropkick Murphys)

Music/Lyrics: Joseph B. Geoghegan (1867)


         Em                      G                D
When on the road to sweet Athy Hurroo Hurroo
         Em                      G              Em
When on the road to sweet Athy Hurroo Hurroo
         Em                    D               C                             Bm
When on the road to sweet Athy a stick in the hand a a drop in the eye
     Em      D       C      Bm Em               D    Em
A doleful damsel I did cry Johnny I hardly knew ya


Verse


Where are the eyes that looked so mild Hurroo Hurroo
Where are the eyes that looked so mild Hurroo Hurroo
Where are the eyes that looked so mild when my poor heart you first beguiled
Why did you run from me and the child Johnny I hardly knew ya

We had guns and drums and drums and guns Hurroo Hurroo
We had guns and drums and drums and guns Hurroo Hurroo
We had guns and drums and drums and guns the enemy never slew ya
Johnny I hardly knew ya


Where are the legs with which you ran Hurroo Hurroo
Where are the legs with which you ran Hurroo Hurroo
Where are the legs with which you ran when first you went to carry a gun
Indeed your dancing days are done Johnny I hardly knew ya

We had guns and drums and drums and guns...


Verse


Ya hadn't an arm ya hadn't a leg Hurroo Hurroo
Ya hadn't an arm ya hadn't a leg Hurroo Hurroo
Ya hadn't an arm ya hadn't a leg you're an eyeless boneless chickenless egg
Ya'll have to be put with the bowl to beg johnny I hardly knew ya

We had guns and drums and drums and guns...


I'm happy for to see ya home Hurroo Hurroo
I'm happy for to see ya home Hurroo Hurroo
I'm happy for to see ya home from the isle of Ceylon
Johnny I hardly knew ya

We had guns and drums and drums and guns...




Intro:
      Em         G          D
d|--0-2--22-2--4-5--54-5--2-0--00-0----0--00------|
A|-----------------------------------2-------0-2--|
D|------------------------------------------------|
0:05/3:07
      Em         G          Em
d|--0-2--22-2--4-5--54-5--7-9--99-9--5-9--99-9--|
A|----------------------------------------------|
D|----------------------------------------------|
0:11/3:12
        Em          D           C           Bm
d|--5-7-9--99-9-7-5-7--77-7-9-7-5--55-5-7-5-4--44-4--|
A|---------------------------------------------------|
D|---------------------------------------------------|
0:16/3:17
        Em    D     C     Bm    Em       D  Em
d|--5-7-9-7-5-7-5-4-5-7-5-4-2-0-2--22-2--0--2--2--|
A|------------------------------------------------|
D|------------------------------------------------|
0:21/3:23

Verse:
       Em           G           D
d|--0--2--2-2-2--4--5--4--5--2--0--0-0-0-----0--0-0------|
A|----------------------------------------2---------0-2--|
D|-------------------------------------------------------|
0:26
       Em           G           Em
d|--0--2--2-2-2--4--5--4--5--7--9--9-9-9--5-7-9--9-9-9--|
A|------------------------------------------------------|
D|------------------------------------------------------|
0:31
        Em             D             C            Bm
d|--5-7-9--9-9-9-10-9--7--7-7-7-9-7--5--5-5-5-7-5-4--4-4-4--|
A|----------------------------------------------------------|
D|----------------------------------------------------------|
0:35
        Em     D      C      Bm     Em         D  Em
d|--5-7-9--7-5-7--5-4-5--4-2-4--2-0-2-2-2-2-2--0--2--|
A|---------------------------------------------------|
D|---------------------------------------------------|
0:40




παραδοσιακό εγγλέζικο αντιπολεμικό τραγούδι.

στην κιθάρα τα πατήματα της μελωδίας είναι τα ίδια, ξεκινώντας από οποιαδήποτε ρε (D), όπως για παράδειγμα το τρίτο τάστο της πέμπτης (B) χορδής.




Σελίδες: [1]   Πάνω
  Εκτύπωση  
 
Μεταπήδηση σε: