+ 
|-+  ΜΟΥΣΙΚΗ» Ταμπλατούρες» Λοΐζος Μάνος
Username:
Password:
Αποστολέας Θέμα: Λοΐζος Μάνος  (Αναγνώστηκε 2351 φορές)
krana
Global Moderator
Junior forumist
*****
Αποσυνδεδεμένος Αποσυνδεδεμένος

Μηνύματα: 154


« στις: Δεκέμβριος 11, 2012, 03:13:28 πμ »

Ο μέρμηγκας (Μάνος Λοΐζος)

Μουσική/Στίχοι: Μάνος Λοΐζος


Intro

A                                      E7             A
Ένας μέρμηγκας κουφός με πήρε απ το χέρι
Είμαι λέει ο πιο σοφός σ΄ ολόκληρο τ΄ ασκέρι

F#m         E                       A  E A            E                        A
Και τα μικρά του τα μερμηγκάκια χειροκροτάνε μ' ενθουσιασμό


        E            A            E         A           E            A  E
εν δυο προσκυνάμε εν δυο πολεμάμε εν δυο δεν πεινάμε


Intro

Τα βολεύεις μια χαρά σπουδαίο μου μυρμήγκι
όμως πρόσεχε καλά τ' ωραίο σου λαρύγγι

Και τα μικρά του τα μερμηγκάκια χειροκροτάνε μ' ενθουσιασμό
εν δυο προσκυνάμε εν δυο πολεμάμε εν δυο μα πεινάμε


Intro

Πριν προλάβω να του πω το σύστημα ν΄ αλλάξει
πλάκωσε όλο το χωριό το μέρμηγκα να χάψει

Και τα μικρά του τα μερμηγκάκια χειροκροτάνε μ' ενθουσιασμό
εν δυο προσκυνάμε εν δυο μα πεινάμε εν δυο θα σε φάμε!



Intro:
e|-----------0--------------------------0-------------------|
B|--------2-----3-2-0---2--0---------2-----3-2-0------------|
G|-----2--------------2-----------2-------------------------|
D|------------------------------------------------2--0------|
A|--0-----------2--------------0-----------2-----------2-0--|
E|--------2-------------0--2-4-------2----------------------|
0:01/0:54/1:48

e|-----------0----------------------------------------------|
B|--------2-----3-2-0---2--0---------3-2-3--0----5-3-5------|
G|-----2--------------2-----------2-------------------------|
D|-----------------------------------0-----------2---0------|
A|--0-----------2--------------0------------2----------2-0--|
E|--------2-------------0--2-4------------------------------|
0:09/1:02/1:56



η μελωδία είναι γραμμένη για μία κιθάρα. τα πρίμα στις 3 πρώτες χορδές (e, B, G) και τα μπάσα στις 3 τελευταίες (D, A, E). αν σας φαίνεται δύσκολο, το σπάτε σε 2 κιθάρες. με λίγη εξάσκηση βγαίνει και σε μία.
« Τελευταία τροποποίηση: Φεβρουάριος 19, 2013, 07:17:09 μμ από krana »
Σελίδες: [1]   Πάνω
  Εκτύπωση  
 
Μεταπήδηση σε: