+  Diymusic.org
|-+  ΜΟΥΣΙΚΗ» Ταμπλατούρες» Ξυλούρης Νίκος
Username:
Password:
Αποστολέας Θέμα: Ξυλούρης Νίκος  (Αναγνώστηκε 3031 φορές)
sotirisr
Newbie
*
Αποσυνδεδεμένος Αποσυνδεδεμένος

Μηνύματα: 25


« στις: Δεκέμβριος 03, 2012, 06:05:42 μμ »

 νομιζω οτι ειναι σωστο,διορθωσεις δεκτες



                           Μπήκαν στην πόλη οι οχτροί


Ξυλούρης Νίκος

Μουσική/Στίχοι: Μαρκόπουλος Γιάννης/Σκούρτης Γιώργος
   

           Am                                Dm
ΛΑ-ΛΑ-ΣΟΛ-ΦΑ-ΦΑ-ΦΑ-ΣΟΛ-ΛΑ-ΣΟΛ
Μπή-καν στην πό- λη           οι   οχ-τροί
            
               Am          G        Am
ΦΑ-ΣΟΛ-ΛΑ-ΦΑ-ΡΕ-ΝΤΟ-ΝΤΟ-ΡΕ
τις   πόρ-τες σπά-σαν οι      οχ-τροί
            
               Dm     Am                       Dm
ΦΑ-ΦΑ-ΦΑ-ΣΟΛ-ΣΟΛ-ΣΟΛ-ΦΑ-ΦΑ-ΛΑ-ΣΟΛ
και 'μεις γε-λού-   σα-με    στις    γει-το-νιές

     Am        G Am
ΦΑ-ΣΟΛ-ΛΑ-ΦΑ-ΡΕ
την πρώ-τη    μέ-ρα

(η μελωδια συνεχιζει το ιδιο)

 
             F          Dm
Μπήκαν στην πόλη οι οχτροί
       Am    G      Am
αδέρφια πήραν οι οχτροί
             Dm   Am         Dm
και μεις κοιτούσαμε τις κοπελιές
Am       G Am
την άλλη μέρα
 
Μπήκαν στην πόλη οι οχτροί
φωτιά μας ρίξαν οι οχτροί
και μεις φωνάζαμε στα σκοτεινά
την τρίτη μέρα
 
Μπήκαν στην πόλη οι οχτροί
σπαθιά κρατούσαν οι οχτροί
και μεις τα πήραμε για φυλαχτά
την άλλη μέρα
 
Μπήκαν στην πόλη οι οχτροί
μοιράσαν δώρα οι οχτροί
και μεις γελούσαμε σαν τα παιδιά
την πέμπτη μέρα
 
Μπήκαν στην πόλη οι οχτροί
κρατούσαν δίκιο οι οχτροί
και μεις φωνάζαμε ζήτω και γεια
σαν κάθε μέρα
 

« Τελευταία τροποποίηση: Φεβρουάριος 19, 2013, 07:17:26 μμ από krana »
krana
Global Moderator
Junior forumist
*****
Αποσυνδεδεμένος Αποσυνδεδεμένος

Μηνύματα: 154


« Απάντηση #1 στις: Δεκέμβριος 13, 2013, 10:03:54 μμ »

Πόνοι της Παναγιάς (Νίκος Ξυλούρης)

Μουσική: Θάνος Λουκάς
Στίχοι: Κώστας Βάρναλης
Δίσκος: Σάλπισμα (1978)



Bm x4

   Bm                            F#m                                 Bm
Πού να σε κρύψω γιόκα μου να μη σε φτάνουν οι κακοί
 D                            Em A                             F#
σε ποιο νησί του ωκεανού σε ποια κορφή ερημική
  Bm                 A                               D A Bm
Δεν θα σε μάθω να μιλάς και τ' άδικο φωνάξεις
 Bm                     A           D           A D             Bm
ξέρω πως θα 'χεις την καρδιά τόσο καλή τόσο γλυκή
        Α           Bm    A       Bm      D        Em   D F#m D A Bm    
που μες στα βρόχια της οργής ταχειά, ταχειά θε να σπαράξεις
      D        Em   D F#m D A (Bm F#m) Bm  
ταχειά, ταχειά θε να σπαράξεις


Συ θα 'χεις μάτια γαλανά θα χεις κορμάκι τρυφερό
θα σε φυλάω από ματιά κακή και από κακό καιρό
Από το πρώτο ξάφνιασμα της ξυπνημένης νιότης
δεν είσαι συ για μάχητες δεν είσαι συ για το σταυρό
εσύ νοικοκερόπουλο όχι σκλάβος, όχι σκλάβος ή προδότης
όχι σκλάβος, όχι σκλάβος ή προδότης


Κι αν κάποτε τα φρένα σου το δίκιο φως της αστραπής
κι αν η αλήθεια σου ζητήσουνε παιδάκι μου να μην τα πεις
Θεριά οι ανθρώποι δεν μπορούν το φως να το σηκώσουν
δεν είναι η αλήθεια πιο χρυσή απ' την αλήθεια της σιωπής
χίλιες φορές να γεννηθεί τόσες, τόσες θα σε σταυρώσουν
τόσες, τόσες θα σε σταυρώσουν


Verse:
    Bm                  F#m                Bm
e|--------------------------------------------|
B|--------------------------------------------|
G|--------------------------------------------|
D|---------------0--2-0-------0-2-4--2-0---0--|
A|--2--2-2-2--4---------4---4------------4----|
E|--------------------------------------------|

            D                Em       A                   F#
e|-----------------------------------------------------------|
B|-----------------------------------------------------------|
G|-------------------------------------------0-2--0----------|
D|----------0--0-2-4--4-2--0-2-(0------)-2-4--------4--2--4--|
A|--(0-2-4)--------------------(--4-2-0)---------------------|
E|-----------------------------------------------------------|

    Bm             A                        D  A  Bm
e|---------------------------------------------------|
B|-----------------2-3-2-0---------0-2------3--2--3--|
G|-----4-4-4-4--4----------2---2-2------2-2----------|
D|--4------------------------------------------------|
A|---------------------------------------------------|
E|---------------------------------------------------|

    Bm            A         D       A  D       Bm
e|----------------------------2-0--------0--------|
B|----------------2-3-2-0-2-------3-2--3---3-2-0--|
G|----4-4-4-4--4----------------------------------|
D|--4---------------------------------------------|
A|------------------------------------------------|
E|------------------------------------------------|

      A     Bm      A       Bm     D     Em   D F#m D  A      Bm
e|---------------------------------------0--0--------------------|
B|-------------------------------2-3---2------3--2--3--2h3p2--0--|
G|--4-2--2---4-4--4-2-4-2---4--4---------------------------------|
D|---------4--------------4--------------------------------------|
A|---------------------------------------------------------------|
E|---------------------------------------------------------------|

            D     Em   D F#m D   A   Bm   F#m        Bm
e|----------------0--0----------------------------------|
B|--------2-3---2------3--2--3---2---0------------------|
G|--(2-4)---------------------------------2-------6--4--|
D|---------------------------------------------4--------|
A|------------------------------------------------------|
E|------------------------------------------------------|



σημ.: οι νότες στις παρενθέσεις είναι τα γεμίσματα της μελωδίας, ανάμεσα στους στίχους.



Σελίδες: [1]   Πάνω
  Εκτύπωση  
 
Μεταπήδηση σε: