Αποστολέας Θέμα: Σπείρα - Μη μου κρύβετε τον ουρανό  (Αναγνώστηκε 1499 φορές)
krana
Global Moderator
Junior forumist
*****
Αποσυνδεδεμένος Αποσυνδεδεμένος

Μηνύματα: 154


« στις: Νοέμβριος 13, 2012, 03:27:56 μμ »

Μη μου κρύβετε τον ουρανό (Σπείρα)

Μουσική/Στίχοι: Σπείρα
Δίσκος: Κατανάλωση παραμυθιών (2007)



| D D |

               D                                     Bm                  Fm
Μη μου κρύβετε τον ουρανό θέλω να νιώσω τη γαλήνη
              D                                                Bm         Fm     D
που μου δίνει ο ήλιος και το δειλινό μη μου κρύβετε τον ουρανό


Μη μου κρύβετε τον ουρανό είναι οι ψεύτικες οι λέξεις
που με αφήνουν στο κενό μη μου κρύβετε τον ουρανό


| D D | Bm Fm | D D | Bm Fm D | x2


Μη μου κρύβετε τον ουρανό θέλω να νιώσω τη γαλήνη
που μου δίνει ο ήλιος και το δειλινό μη μου κρύβετε τον ουρανό


Μη μου κρύβετε τον ουρανό είναι οι ψεύτικες οι λέξεις
που με αφήνουν στο κενό μη μου κρύβετε τον ουρανό


Intro:
e|----------2---------------2----|
B|------3-----3---------3-----3--|
G|----2---2-----------2---2------|
D|--0-----------0---0------------|
A|----------------4--------------|
E|-------------------------------|
0:06

Bass Line:
e|-------------------------------------------------------------------------|
B|-------------------------------------------------------------------------|
G|-------------------------------------------------------------------------|
D|-------------------------------------------------------------------------|
A|--0-4-5--555-5-5-5-0-4-5--555-5-5-5-5-4h5-2--222-2-2-2-0-2-4--444-4-4-4--|
E|-------------------------------------------------------------------------|
0:42

e|---------------------------------------------------------------------|
B|---------------------------------------------------------------------|
G|---------------------------------------------------------------------|
D|---------------------------------------------------------------------|
A|--0-4-5--555-5-5-5-0-4-5--555-5-5-5-5-4-2-2-2-2-4-4-4-5-5-5-5-5-5-5--|
E|---------------------------------------------------------------------|
0:50
« Τελευταία τροποποίηση: Φεβρουάριος 19, 2013, 07:40:39 μμ από krana »
Σελίδες: [1]   Πάνω
  Εκτύπωση  
 
Μεταπήδηση σε: