+ 
|-+  ΜΟΥΣΙΚΗ» Ταμπλατούρες» Χαρούλης Γιάννης
Username:
Password:
Αποστολέας Θέμα: Χαρούλης Γιάννης  (Αναγνώστηκε 2871 φορές)
krana
Global Moderator
Junior forumist
*****
Αποσυνδεδεμένος Αποσυνδεδεμένος

Μηνύματα: 154


« στις: Οκτώβριος 23, 2012, 01:30:59 μμ »

Ραμόν (Γιάννης Χαρούλης)

Μουσική/Στίχοι: Θανάσης Παπακωνσταντίνου
Δίσκος: Μαγγανείες (2012)



| Gm | Gm | Gm | Bb Cm (μισό μέτρο) | Gm |

Intro | Gm D7 | Gm Gm | (9/8) x2

Gm            Cm  Gm                        Cm Bb
Σαν τις αλογόμυγες στης άνοιξης την πλάτη
D7                       Gm Bb             Cdim
τώρα χάσκουν αδειανά τα πολυβολεία
 
| Gm | D7 | Gm | D7 | Gm Cm (μισό μέτρο) | Gm |


Intro | Gm D7 | Gm Gm | (9/8) x2

Τα κοιτώ κι αναριγώ που μια μέρα είδα
τον αντάρτη τον Ραμόν καθιστό σε μια άκρη

| Gm | D7 | Gm | D7 | Gm Cm (μισό μέτρο) | Gm |


Intro | Gm D7 | Gm Gm | (9/8) x2

Άρμεγε μια αχτένιστη μια ρούσα γίδα
κι όπως κοντοστάθηκα λόγο μου απευθύνει

| Gm | D7 | Gm | D7 | Gm Cm (μισό μέτρο) | Gm |


Intro | Gm D7 | Gm Gm | (9/8) x2

Έχεις χαιρετίσματα καποιανού Δημήτρη
γάλα για τα ορφανά που δεν έχουν σπίτι

| Gm | Cdim | Gm | Cdim | Gm Cdim (μισό μέτρο) | Gm |




Intro:
e|--------------------------------------------------------------------|
B|------3-------3----------3-----------3-------3----------------------|
G|---------3------------------------------3---------3-----5----2h3-0--|
D|----5-----5-------5---5---5---5----5-----5---------5---5------------|
A|--------------------5-------5-------------------------3-------------|
E|--3----------3--------------------3---------3-----3--------3--------|
0:00

e|-----------------------------------------------|
B|------------------1h3-4---4--------------------|
G|--0--0--0h2-3---3-----------0h2-3---2-0--0--0--|
D|-----------------------------------------------|
A|------------------------3---------3------------|
E|--------------3--------------------------------| x2
0:12/1:00/1:50/2:39/3:28
« Τελευταία τροποποίηση: Φεβρουάριος 19, 2013, 07:42:04 μμ από krana »
krana
Global Moderator
Junior forumist
*****
Αποσυνδεδεμένος Αποσυνδεδεμένος

Μηνύματα: 154


« Απάντηση #1 στις: Οκτώβριος 29, 2012, 05:36:10 μμ »

Τούτο το μήνα (Γιάννης Χαρούλης)

Μουσική/Στίχοι: Παραδοσιακό Κρήτης


Intro x2

  Em                                    Am                Dm           Em
Τούτο το μήνα τον από πάνω τον από πάνω τον παραπάνω

Intro

Αϊτός εβγήκε να κυνηγήσει να κυνηγήσει και να γυρίσει

Intro

Δεν εκυνήγα λαγούς κι ελάφια μον' εκυνήγα δυο μαύρα μάτια

Intro

Μαύρα μου μάτια κι αγαπημένα και πώς περνάτε χωρίς εμένα

Intro

Μαύρα μου μάτια κόκκινα χείλη έβγα μικιό μου στο παραθύρι

Intro

Να ιδεις τον ήλιο και το φεγγάρι να ιδεις τον νέο που θα σε πάρει

Intro

Γαϊτάνι φαίνω και δεν αδειάζω δε μου βολεί να κουβεντιάζω

Intro

Μα ανάθεμά το και το γαϊτάνι κι απού το πλέκει κι απού το φάνει



Intro:
e|--7--7---7--7--5-7-5h7p5--3--5--7---7--7--5-7-5h7p5--3--|
B|--------------------------------------------------------|
G|--------------------------------------------------------|
D|--------------------------------------------------------|
A|--------------------------------------------------------|
E|--------------------------------------------------------|

e|--2h3p2h3--5---5--5--5-3-1--0h1p0-----3--5--3-0-1----0-|
B|-----------------------------------3---------------3---|
G|-------------------------------------------------------|
D|-------------------------------------------------------|
A|-------------------------------------------------------|
E|-------------------------------------------------------|


Verse:
e|--5--7---7--7--5--5--3---5--7---7--7--5--5--3--|
B|-----------------------------------------------|
G|-----------------------------------------------|
D|-----------------------------------------------|
A|-----------------------------------------------|
E|-----------------------------------------------|

e|--2h3-5---5--7--3--1--0-----3---0--1---0--|
B|-------------------------3----------------|
G|------------------------------------------|
D|------------------------------------------|
A|------------------------------------------|
E|------------------------------------------|




(Γ. Χαρούλης)



(Β. Σκουλάς, Μ. Λιδάκης)


« Τελευταία τροποποίηση: Δεκέμβριος 13, 2013, 10:34:40 μμ από krana »
Σελίδες: [1]   Πάνω
  Εκτύπωση  
 
Μεταπήδηση σε: