+ 
|-+  ΜΟΥΣΙΚΗ» Ταμπλατούρες» Χαΐνηδες
Username:
Password:
Αποστολέας Θέμα: Χαΐνηδες  (Αναγνώστηκε 6100 φορές)
krana
Global Moderator
Junior forumist
*****
Αποσυνδεδεμένος Αποσυνδεδεμένος

Μηνύματα: 154


« στις: Μάιος 26, 2012, 03:10:37 μμ »

Περιεχόμενα:

« Τελευταία τροποποίηση: Μάιος 27, 2015, 02:43:58 πμ από krana »
krana
Global Moderator
Junior forumist
*****
Αποσυνδεδεμένος Αποσυνδεδεμένος

Μηνύματα: 154


« Απάντηση #1 στις: Ιούνιος 05, 2012, 06:26:26 μμ »

Τα όσα η μοίρα μου 'γραφε (Χαΐνηδες)

Στίχοι: Οδυσσέας Ελύτης
Μουσική: Αντώνης Σκαμνάκης
Δίσκος: Ο γητευτής και το δρακοδόντι (2005)



Intro

Riff

Dm                                     Gm
Τα όσα η μοίρα μου 'γραφε κι άλλος κανείς δεν ξέρει
Dm                                   Cm                         Dm
τα βρήκα μέσα στον καφέ τα διάβασα στο χέρι
ποτάμι βρήκα σκοτεινό μια σφαλιγμένη πόρτα
κοράκια πάνω στο βουνό και φίδια μες στα χόρτα


Riff

Μακάρι νά 'μουν σαν τα ζα που βόσκουν στον κάμπο
γράμματα να μη γνώριζα μες στα μυστήρια νά 'μπω
μυστήρια τέτοια δε συμφέ- να ψάχνω δε συμφέρει
φέρτε μου δεύτερο καφέ κι αλλάξτε μου το χέρι


Solo


Μυστήρια τέτοια δε συμφέ- να ψάχνω δε συμφέρει
φέρτε μου δεύτερο καφέ κι αλλάξτε μου το χέρι



Intro:
    Dm                  Gm          Dm
d|----0--1--3--1p0-1--0---8--8-7--5---0--1--3--1p0-1--0--0--0--0--|
A|---3-------------------------------3----------------------------|
D|--0-------------------0-----------0-------------------0----0----| x2
0:00


Riff:
    Gm
d|---7-8-8-8--10--12-10-8-7-5--553-7-5---55-3-1-0--1----7--10--|
A|-----------------------------------------------3----0--------|
D|--0----------------------------------------------------------|
0:15
    Gm
d|---7-8-8-8--10--12-10-8-7-5--553-7-5---55-3-1-0-5--3-1h3p1h3p1-0--|
A|-----------------------------------------------3------------------|
D|--0---------------------------------------------------------------|
0:23


Verse:
    Dm                      Gm
d|----0--1--3---5----7---8--7---5----7--8--10--7--5--3--7--5--|
A|---3--------------------------------------------------------|
D|--0--------------0---------------0--------------------------|
0:33
    Dm                           Cm                     Dm
d|----0--1--3---5----1---0--1--0-------0--1--5--3--1--0--0--0--0--|
A|---3---------------------------3----3---------------------------|
D|--0--------------0-----------------0------------------0----0----|
0:41



« Τελευταία τροποποίηση: Ιανουάριος 31, 2014, 09:40:08 μμ από krana »
krana
Global Moderator
Junior forumist
*****
Αποσυνδεδεμένος Αποσυνδεδεμένος

Μηνύματα: 154


« Απάντηση #2 στις: Οκτώβριος 02, 2012, 02:52:24 μμ »

Συνταγές μαγειρικής (Χαΐνηδες)

Μουσική: Δημήτρης Ζαχαριουδάκης/Γιώργος Μανωλάκης
Στίχοι: Δημήτρης Αποστολάκης
Δίσκος: Ο γητευτής και το δρακοδόντι (2005)



Intro

Gm                  Cm      Eb                         Gm
Από μικρή της άρεσε μες στην κουζίνα μόνη
τις ώρες να σκοτώνει με τη μαγειρική
και πέφτανε τα δάκρυα θυμώντας τη ζωή της
Gm                    D7                              Gm
και δίναν στο φαΐ της μια γεύση μαγική

Gm                   Cm             Eb            Gm
Κύμινο, μοσχοκάρυδο και κόκκινο πιπέρι
Gm                    F                                  Bb
ποτέ δεν είχε ταίρι ν' αλλάξει μιαν ευχή
Bb                     Cm               Eb                     Gm
να χαμηλώσεις τη φωτιά μετά την πρώτη βράση
Gm                     Cm    D7                      Gm
να γίνονταν η πλάση ξανά από την αρχή
Gm                    Cm               Eb                     Gm
να χαμηλώσεις τη φωτιά μετά την πρώτη βράση
Gm                               D7                     Gm
να γίνονταν η πλάση ξανά απ' την αρχή


Intro

Ψιλοκομμένος μαϊντανός και σκόρδο μια σκελίδα
να 'φεγγε μιαν ελπίδα στα μάτια τα μελιά
και προς το τέλος πρόσθεσε ένα ποτήρι λάδι
να 'νιωθε ένα χάδι μια μέρα στα μαλλιά

Μια νύχτα έπιασε φωτιά μέσα στο μαγερειό της
που 'κανε το φευγιό της να μοιάζει με γιορτή
τέτοια που γύρω φύτρωσαν άσπρα του γάμου κρίνα
ολόιδια με κείνα που είχε ονειρευτεί


Intro

Πόσες καρδιές που γίνανε αναλαμπή κι αθάλη
μας κάμανε μεγάλη κάποια μικρή στιγμή
κι αθόρυβα διαβήκανε απ' της ζωής την άκρη
χωρίς ν' αφήσει δάκρυ σε μάγουλο γραμμή



Intro:
e|---------------------------------------------------------|
B|---------------------------------------------------------|
G|----------5-8-7h8p7--5---------------5-8-7h8p7--5--------|
D|--5-8-7-8--------------8-7-8-5-8-7-8--------------8-7-8--|
A|---------------------------------------------------------|
E|---------------------------------------------------------|
0:05

e|----------------------------------------|
B|----------------6-6-8--6h8p6------------|
G|-------5-7-5-8-7-8-----------8h10p8--7--|
D|--5-8-7-8-------------------------------|
A|----------------------------------------|
E|----------------------------------------|
0:09

e|--------------------------------------------------------------|
B|------6-------------------------------------------------------|
G|--7--8-8-7-8--5---5--7-8-7-5-7-------5-7-5-5------------8--7--|
d|-------------------------------8---8------8--7--5--4--7-------|
A|--------------------------------------------------------------|
E|--------------------------------------------------------------|
0:13

e|---------------------------------------------------------------|
B|------6--------------------------------------------------------|
G|--7--8-8-7-8--5---5--7-8-7-5-7-------5-7-5-5-------------------|
D|-------------------------------8---8------8--7--5--4--7--8--5--|
A|---------------------------------------------------------------|
E|---------------------------------------------------------------|
0:22



« Τελευταία τροποποίηση: Σεπτέμβριος 08, 2014, 02:47:03 μμ από krana »
krana
Global Moderator
Junior forumist
*****
Αποσυνδεδεμένος Αποσυνδεδεμένος

Μηνύματα: 154


« Απάντηση #3 στις: Οκτώβριος 02, 2012, 08:07:03 μμ »

Θέλω να πάρω τη φυλή μου και να φύγω (Χαΐνηδες)

Μουσική/Στίχοι: Δημήτρης Αποστολάκης
Δίσκος: Ο ξιπόλητος πρίγκιπας (2005
)



Intro

  Dm                             F                 (Em) Dm
Θέλω να πάρω τη φυλή μου και να φύγω
  F                            Gm               Dm
δε θέλω ούτε μερτικό απ' το κοπάδι
 Dm                                                           Gm
μού 'πες φτερά πως έχω κάποιο κρύο βράδυ
 Dm                                Gm            F Em Dm
μα εγώ φτερά δεν έχω άμα δεν τ' ανοίγω


Intro

Πάρε αγέρι στα ουράνια την πνοή μας
να κάμει όσα ονειρευτήκαμε ταξίδια
εδώ ο άρχοντας μοιράζει μπιχλιμπίδια
κι εμείς του δίνουμε στιγμές απ' τη ζωή μας


Intro

Θέλω να πάρω τη φυλή μου και να φύγω
εδώ ο έρωτας πια δεν περνοδιαβαίνει
αφού τ' αδέρφια μας γυρνούν σαν κολασμένοι
για να μαζέψουνε το βιος τους λίγο-λίγο


Intro

Πάνω στο στέμμα μου βρυχάται άγριος λιόντας
κι είναι του άγνωστου ο πιο μεγάλος τρόμος
το ξέρεις μάτια μου πως δεν υπάρχει δρόμος
αφού το δρόμο τον ανοίγεις περπατώντας


« Τελευταία τροποποίηση: Δεκέμβριος 13, 2013, 11:38:30 μμ από krana »
krana
Global Moderator
Junior forumist
*****
Αποσυνδεδεμένος Αποσυνδεδεμένος

Μηνύματα: 154


« Απάντηση #4 στις: Δεκέμβριος 13, 2013, 10:49:09 μμ »

Η φυγή (Χαΐνηδες)

Μουσική: Αντώνης Σκαμνάκης
Στίχοι: Αντώνης Σκαμνάκης & Δημήτρης Αποστολάκης
Δίσκος: Ο γητευτής και το δρακοδόντι (2005)



Intro

       Dm
Του ήλιου και της μοίρας τα ρολόγια
      A
θολά και σκουριασμένα απ' τη βροχή
         Gm                                  Dm
μιας μάνας δεν ακούσανε τα λόγια
       A                                                 Dm
και σέρνουν κύκλο πάλι απ' την αρχή
         Gm                                  Dm
μιας μάνας δεν ακούσανε τα λόγια
       A                                                 Dm A Dm
και σέρνουν κύκλο πάλι απ' την αρχή

          Dm                                          Gm
Η ηδονή που 'ναι γραμμένη με κοντύλι
                     C                            F
μες στης ψυχής το πιο βαθύ κιτάπι
                  Gm                                     A
μοιάζει με κόρη που συνάντησες το δείλι
        A                                        Dm
στα μάτια την εκοίταξες κι εντράπη


Intro

Είσαι πουλί και θέλεις να πετάξεις
και όλο τον ορίζοντα κοιτάς
στην άκρη του γκρεμού αν δεν κοιτάξεις
ποτέ σου δε θα μάθεις να πετάς

Σφίγγεις τα χείλη και φορτώνεις σ' ένα κάρο
στάχυα τα όνειρά σου σε δεμάτια
τη νιότη σκιάχτρο αφήνεις πίσω για τον Χάρο
και ξεκινάς γι' ανεύρετα παλάτια



Intro:
e|------------------------------------------------------------------------|
B|------------------------------------------------------------------------|
G|---------7------7-------------------------------------------------------|
D|--7-8-10----8-----10-7---10-8------8-7-----7--------7--s5--3--5-3--5-3--|
A|------------------------------10-------8-----10-7---8--s7--5------------|
E|------------------------------------------------------------------------|
0:00

e|--------------------------------------------------------------------------|
B|------------------------------------------------------10h11p10------------|
G|---------7------7-------------------------------7-10-9---------10-9-10-7--|
D|--7-8-10----8-----10-7---10-8------8-7-------6-9--------------------------|
A|------------------------------10-------8----8-----------------------------|
E|--------------------------------------------------------------------------|
0:09



« Τελευταία τροποποίηση: Δεκέμβριος 13, 2013, 11:40:45 μμ από krana »
krana
Global Moderator
Junior forumist
*****
Αποσυνδεδεμένος Αποσυνδεδεμένος

Μηνύματα: 154


« Απάντηση #5 στις: Μάιος 26, 2015, 08:25:57 μμ »

Εφτά ποτάμια (Γιάννης Χαρούλης)

Μουσική/Στίχοι: Δημήτρης Αποστολάκης
Δίσκος: Ο γητευτής και το δρακοδόντι (2005)



Em                                                     Am
Εφτά ποτάμια σμίξαν και τρεις καημοί
     Em                G                        Am
κι είπανε να μερώσουνε μια στιγμή
     Am                                    D        Em
οι θάλασσες κοπάσαν κι οι στεναγμοί
      Am      Em       D           Am        Em
εννιά σπαθιά γυμνώσανε στη γραμμή

Η άνοιξη η μαυλίστρα για να διαβεί
κοιτάξτε χωριανοί μου τι θα συμβεί
τα πάθη σαν σαρκώσουμε του Ραβί
εκείνος ο μπροστάρης κι εμείς στραβοί

Solo

Ήλιε μου στρατολάτη ταξιδευτή
που μου 'δωσες τη χάρη του γητευτή
ο άνθρωπος γυρεύει για να γευτεί
απ' το ζεστό μου αίμα να γιατρευτεί

Η μεγαλοβδομάδα κόρη ξανθή
μύρωσε το χωριό μας και ροδανθεί
που τρώει το θεό του για να χαθεί
κι ίσως με το χαμό του ν' αναστηθεί

Solo

Στης άνοιξης τον κόρφο τον ζηλευτό
μυριόχρωμο γιορντάνι το σερπετό
φάρμακο το φαρμάκι στον αετό
για να πετάξει εκείνος ως ειν γραφτό

Πέρνα περαματάρη τον ποταμό
πάρε κι εμέ μαζί σου στο μισεμό
κι εκεί στον καταρράχτη και στον γκρεμό
θα μάθω του συμπάντου τον λυτρωμό



Solo:
e|------------------------------------------------------------------|
B|------------------------------------------------------------------|
G|--0--2-4-4--4--4--4-2-2-0-4-2-2----0--2-4-4--4--7--4-2-2-0-4-2-2--|
D|------------------------------------------------------------------|
A|------------------------------------------------------------------|
E|------------------------------------------------------------------|
1:54

e|----------------------------------------------|
B|----------------------------------------------|
G|----0-2--4-5-4--2--2-5-4-2-2-0-0---2---0---0--|
D|--4------------------------------4-------4----|
A|----------------------------------------------|
E|----------------------------------------------|
2:08

e|----------------------------------------------|
B|----------------------------------------------|
G|----0-2---4--0--2----0------------------------|
D|--4----------------4---4-2-2-4-2-0---0-2-0-2--|
A|-----------------------------------4----------|
E|----------------------------------------------|
2:19



« Τελευταία τροποποίηση: Μάιος 26, 2015, 08:30:16 μμ από krana »
Σελίδες: [1]   Πάνω
  Εκτύπωση  
 
Μεταπήδηση σε: