+ 
|-+  ΜΟΥΣΙΚΗ» Ταμπλατούρες» Μιχαήλ Γιώργος
Username:
Password:
Αποστολέας Θέμα: Μιχαήλ Γιώργος  (Αναγνώστηκε 2969 φορές)
krana
Global Moderator
Junior forumist
*****
Αποσυνδεδεμένος Αποσυνδεδεμένος

Μηνύματα: 154


« στις: Νοέμβριος 09, 2011, 08:18:55 μμ »

ένα πολύ όμορφο τραγούδι από έναν εξαιρετικό καλλιτέχνη, όχι πολύ γνωστό δυστυχώς:


Η κοπελιά και ο δράκος (Γιώργος Μιχαήλ)

Μουσική/Στίχοι: Γιώργος Μιχαήλ
Δίσκος: Της γης ο μουσαφίρης (2004)




Intro (Em | Am | Em | Am Em) x2

                      Em           C                   Am             Em

Του τρένου το παράπονο της σήραγγας το μάκρος
Ο φόβος κάθε σφουγγαρά της θάλασσας το βάθος


Intro

Άλλον τον λεν' αγαπητό κι άλλον αγαπημένο
Πιασμένο αγρίμι είν' η καρδιά σε δάσος μαγεμένο

Em    D    Am     G Bm Am        G       C     D  Am Em

Έχει βάσανα η ζωή μου δεν τα ξέρει ούτ' η αυλή μου
κι αν της ξομολογηθώ τα λουλούδια της νυστάζουν
Em              D     Am   G Bm Em  Bm             Em

κι αν την προσπεράσω πάλι μαραζώνει και χαλάει


Intro

Του αντρειωμένου η αντρειά για της καλής τα ρόιδα
ο δράκοντας κι η κοπελιά το παραμύθι το είδα


Intro

Την κοπελιά ο δράκοντας την έφαγε ένα βράδυ
που ο αντρειωμένος μέθυσε κι έφυγε με μιαν άλλη

Έχει βάσανα η ζωή μου δεν τα ξέρει ούτ' η αυλή μου
κι αν της ξομολογηθώ τα λουλούδια της νυστάζουν
κι αν την προσπεράσω πάλι μαραζώνει και χαλάει



Intro:
    Em                      Am  
d|-----9-9-9-9-9-9-10-7-9-5---4-5-7--7-7-7-7-5h7p5-4-5-7-4-5---|
A|--7-------------------------------------------------------7--|
D|-------------------------------------------------------------|
0:12

    Em                      Am            Em
d|-----9-9-9-9-9-9-10-7-9-5---4-5-7-7-7-5----|
A|--7-------------------------------------2--|
D|-------------------------------------------|
0:17


Verse:
    Em      Am      C       Em
d|--9--| |--5--| |--7--| |--2--|
A|--5--| |--7--| |--3--| |--2--|
D|--5--| |--9--| |--7--| |--2--|
0:32


Refrain:  
d|--5--5-4--2--7--7-5-4--7--7-5--4--14-12-10-9--|
A|----------------------------------------------|
D|----------------------------------------------|
1:24

d|--5--5-4--2--7--7-5-4--5--5-4--2--0--2--0-------------|
A|-------------------------------------------3--2--0----|
D|---------------------------------------------------5--|
1:44
« Τελευταία τροποποίηση: Δεκέμβριος 15, 2013, 04:28:59 πμ από krana »
Σελίδες: [1]   Πάνω
  Εκτύπωση  
 
Μεταπήδηση σε: