+ 
|-+  ΜΟΥΣΙΚΗ» Ταμπλατούρες» Χειμερινοί Κολυμβητές
Username:
Password:
Αποστολέας Θέμα: Χειμερινοί Κολυμβητές  (Αναγνώστηκε 9442 φορές)
krana
Global Moderator
Junior forumist
*****
Αποσυνδεδεμένος Αποσυνδεδεμένος

Μηνύματα: 154


« στις: Οκτώβριος 29, 2011, 11:26:46 μμ »

Περιεχόμενα:

« Τελευταία τροποποίηση: Μάιος 27, 2015, 12:09:00 πμ από krana »
krana
Global Moderator
Junior forumist
*****
Αποσυνδεδεμένος Αποσυνδεδεμένος

Μηνύματα: 154


« Απάντηση #1 στις: Οκτώβριος 29, 2011, 11:34:27 μμ »

Το πολλαπλό σου είδωλο

Μουσική/Στίχοι: Αργύρης Μπακιρτζής
Δίσκος: Χειμερινοί κολυμβητές (1991)




Intro

Συχνάζεις στο μικρό καφέ εγώ στη Μυροβόλο
έτσι που όσο κι αν θέλουμε ποτές δε θα ιδωθούμε


Interlude

Εγώ ξυπνώ απ' τις εφτά εσύ το μεσημέρι
κι όταν τινάζω τα χαλιά στο βόλεϊ πάντα τρέχεις


Interlude

Στην παμπ πηγαίνεις στις εννιά εγώ έντεκα με μία
έτσι που όσο κι αν θέλουμε ποτές δε θα ιδωθούμε


Interlude

Μα πού θα πάει ο καιρός κι οι βουρλισμένοι χρόνοι
θε να 'ρθει κάποιο σούρουπο ξανά ν' ανταμωθούμε


Interlude




Intro/Verse:
d|--0---0--2--2-3-2--2-0--0--0--0--0--0--2--2-3-2---2-3-2-0-0-0-0-0-0--|
A|----0----3--------3--------------------3--------3---------0----------|
D|---------5-----------------------------5------------------0----------|
0:58

d|--0------2p0-0--0-3-2-----------0--------------------------------|
A|---3h5p3---------------1p0-0--0---3---3s1-1-1-1-0-0--0--0--0--0--|
D|------------------------------------5----------------------------|
1:09


Interlude:
d|--0------2p0-0--0-3-2-----------0--------------------------------|
A|---3h5p3---------------1p0-0--0---3---3s1-1-1-1-0-0--0--0--0--0--|
D|------------------------------------5----------------------------|
1:38

« Τελευταία τροποποίηση: Μάιος 27, 2015, 12:02:10 πμ από krana »
krana
Global Moderator
Junior forumist
*****
Αποσυνδεδεμένος Αποσυνδεδεμένος

Μηνύματα: 154


« Απάντηση #2 στις: Οκτώβριος 29, 2011, 11:40:44 μμ »

Στον Παγασητικό

Μουσική/Στίχοι: Αργύρης Μπακιρτζής
Δίσκος: Χειμερινοί Κολυμβητές (1991)




Intro (Dm  F  C Dm  Dm  F  C  Dm)

Dm                 F                       C  Dm
Στον Παγασητικό χαθήκαμε το βράδυ
Dm                 F                           Am Dm
στον Παγασητικό σε δρόμους σε νταμάρια


Intro

Στον Παγασητικό τη μέρα δυναμίτες
στον Παγασητικό το βράδυ ερημίτες


Intro

Στον Παγασητικό τα σχέδια λουλούδια
στον Παγασητικό λουλούδια του πελάγου


Intro


Verse


Intro





Intro:
        Dm                F           C   Dm
d|--0-3-7-7-7-7-7-7-3-0-2h3-3-3-3-3-3-7-3-0-0-0-0-0-0-|
A|----------------------------------------------------|
D|----------------------------------------------------|
0:00
        Dm               F          C       Dm
d|--0-3-7-7-7-7-7-7-7-8-10-10-10-10-8-8-8-8-7-7-7-7-7-7-7--|
A|---------------------------------------------------------|
D|---------------------------------------------------------|
0:07


Verse:
    Dm        F                       C     Dm
d|--0-3-7-3-0-3-3-3-3-3-3-3-2-5-3-7-5-2h3p2-0-0-0-0-0-0-0--|
A|---------------------------------------------------------|
D|---------------------------------------------------------|
0:14
    Dm        F                       Am  Dm
d|--0-3-7-3-0-3-3-3-3-3-3-3-2-5-3-2-0-7x7-0-0-0-0-0-0--|
A|-----------------------------------------------------|
D|-----------------------------------------------------|
0:22
« Τελευταία τροποποίηση: Μάιος 27, 2015, 12:04:26 πμ από krana »
αυτοδιδακτος
Newbie
*
Αποσυνδεδεμένος Αποσυνδεδεμένος

Μηνύματα: 8


« Απάντηση #3 στις: Δεκέμβριος 27, 2011, 12:55:13 μμ »

Ωράιος φίλε.

Έχω κάνει και γω μια προσπάθεια για το Τώρα που παντρεύεσαι , δεν ειναι ολοκληρωμένο οπότε αν μπορείς να βοηθήσεις...
Επίσης, έχεις μήπως το από το πάρκο στην μυροβόλο;

Εισαγωγή

0-2-3-2-3-5-9-7-5-3-2-0-2-3-5
-------------------------------

Λόγια
Τώ-ρα που πα-ντρευ-ε--σαι
7-- 8--7---2--3-----2--0

Σου το λε-ω α-λλη μια πως σα-γα-πα-ω
0---3--7--7-6-7---12-12--10-8--10--7

Κι ο-μως λε-γω στο κα-λο
7---8---7--2---3---2--0

Για-τι ει-σαι μια γυ-ναι-κα της ο-δυ-νης
0--2-3--2--3--5---7--5--3---2-3--0

(Δεν έχω βγάλει ολόκληρη την εισαγωγή)
« Τελευταία τροποποίηση: Μάιος 27, 2015, 12:08:23 πμ από krana »
nikkortis
Junior forumist
*****
Αποσυνδεδεμένος Αποσυνδεδεμένος

Μηνύματα: 192



« Απάντηση #4 στις: Δεκέμβριος 27, 2011, 06:42:56 μμ »

τρελαθηκαααααααααααααααα!!!!!! μπραβο σου ρε krana
πολυ οργανωση!!!! θεος!

Κανένας δεν μας έβλεπε όσο είμασταν ακάλυπτοι,τώρα όλοι ασχολούνται
πώς γίνεται στον ένα παλαβιάρη, εξήγησέ μου, κουτόχορτο χιλιάδες να βοσκάν.
ΜΑΚΗΣ
Junior forumist
*****
Αποσυνδεδεμένος Αποσυνδεδεμένος

Φύλο: Άντρας
Μηνύματα: 116



« Απάντηση #5 στις: Δεκέμβριος 28, 2011, 11:39:17 πμ »

Φίλε krana όντος πολύ ωραίος!!!
Ωστόσο αν μπορείς εξήγησε μας τα σύμβολα….:

1h3p1,
1p0,
3s1,
7x7,
Και τέλος  τα 0:00,   0:22
Ευχαριστώ!!!

η γνώση είναι περιορισμένη,
μόνο η βλακεία είναι απεριόριστη !
krana
Global Moderator
Junior forumist
*****
Αποσυνδεδεμένος Αποσυνδεδεμένος

Μηνύματα: 154


« Απάντηση #6 στις: Ιανουάριος 08, 2012, 03:29:22 μμ »

το 1h3p1 είναι hammer-on και pull-off.
το 1p0 το ίδιο (pull-off).
το 3s1 είναι slide.
τα 0:00 και 0:22 είναι ο χρόνος στο τραγούδι που ξεκινάει η κάθε σειρά των tabs.
antonisp
Newbie
*
Αποσυνδεδεμένος Αποσυνδεδεμένος

Μηνύματα: 2


« Απάντηση #7 στις: Φεβρουάριος 20, 2012, 11:04:35 μμ »

χίλια ευχαριστούμε! Κι αν βρεις χρόνο συνέχισε με χειμερινούς!!!
Andre
Newbie
*
Αποσυνδεδεμένος Αποσυνδεδεμένος

Μηνύματα: 1


« Απάντηση #8 στις: Μάιος 12, 2015, 07:18:20 μμ »

Πρώτη προσπάθεια για να βγάλω κάποιο τραγούδι όντας αρχάριος.Το κομμάτι ειναι το "Σε μια εκκλησιά"...Είναι η βασική μελωδία.Αν έχει κάποιο λάθος παρακαλώ να με διορθώσετε

Εισαγωγή:

d|12-10-9-10|12-10-9-10|12-10-9-10|12-12-12

d|12-10-9-10|12-10-9-10|12-10-9-10|7-7-7

Λόγια:

d|10-12-8-10-7-8-5-8-7-5-3-5-7-8-7

d|10-12-8-10-7-8-5-8-7-5-3-2-3-2-0


9. Σὲ μιὰ Ἐκκλησιά
Στίχοι: Ἀργύρης Μπακιρτζῆς
Μουσική: Ἀργύρης Μπακιρτζῆς
Ἑρμηνεία: Ἀργύρης Μπακιρτζῆς, Ἱσίδωρος Παπαδάμου

Σὲ μιὰ ἐκκλησιὰ μοναχική, μὲς σ᾿ ἀψηλὲς καμάρες,
σταθῆκαν ἕνα ἀπόβραδο πέντε-ἕξι ντερβισάδες.

Κοιτάξανε μὲ θαυμασμὸ ἅγιους ζωγραφισμένους,
τὴν Παναγιὰ καὶ τὸν Χριστὸ στὴν κόγχη καμωμένους.

Ῥωτῆσαν τὸν Ἀρχάγγελο γιὰ τὴ ζωὴ ἐτούτη,
γιὰ τὸ καλό, γιὰ τὸ κακό, τὴ φτώχια καὶ τὰ πλούτη

Μὰ μὲς τὴ ζάλη τὴν πολλή, δὲν εἶδαν πὼς οἱ ἅγιοι
ἦταν μόνο ζωγραφιστοὶ κι ἡ ἐρημιὰ μεγάλη.

Καλέ πενιές..

« Τελευταία τροποποίηση: Μάιος 27, 2015, 12:06:28 πμ από krana »
krana
Global Moderator
Junior forumist
*****
Αποσυνδεδεμένος Αποσυνδεδεμένος

Μηνύματα: 154


« Απάντηση #9 στις: Μάιος 26, 2015, 11:38:08 μμ »

Κάθε πρωί σ' αναζητώ

Μουσική: Αργύρης Μπακιρτζής
Στίχοι: Καΐς εμπν Μουάζ (μετάφραση Κώστα Τρικογλίδη)
Δίσκος: Το πέρασμά σου (2007)




           Dm     Gm Dm
Κάθε πρωί σ' αναζητώ ολημερίς σε ψάχνω
              Gm                  Bb        Dm               Bb    A  Dm
και κάθε ηλιο- και κάθε ηλιοβασίλεμα ρωτώ για σένα πάντα


Intro

Κι όλες τις νύχτες μου περνώ με αγωνία και πόνο
κι όμως ποτέ κι όμως ποτέ παράπονο δεν βγάζει η καρδιά μου


Intro

Κι όμως ποτέ παράπονο δεν βγάζει η καρδιά μου
γιατί είν' ο πό- γιατί είν' ο πόνος μου γλυκός πού 'χω για σένα φως μου


Intro

Αγάπη μου είν' αβάσταχτος του χωρισμού ο πόνος
σαν το κερί σιγά -ιγά το πνεύμα μου θα σβήσει μες στη φλόγα


Intro

Άλλη καμιά ποτέ μες στη ζωή το πνεύμα μου δεν θ' αδράξει
κι ούτε ποτέ ζητώ να βρω παρηγοριά κι ανάσα σ' αγάπη άλλη


Intro




Intro:
             Gm            Bb                  Dm
d|-----------1-------------0-------------------------------------|
A|--0--1--0--3-----0-1--3--5---5-3-1--3--1h3p1-0-----------------|
D|-----------5---5---------5-----------------------5-3--2-3-5-7--|
0:48
             Bb     A                 Dm
d|---------------------------------------|
A|---------------------------------------|
D|--0--0--2--3---2--7---5-3h5p3-2h3p2-0--|
0:54


Verse:
             Dm     Gm          Dm
d|-----0--2--3---2--5---3-2--3--0-------0--2--3---3--2--3--(5)-7--8--7--|
A|--0--------------------------------0----------------------------------|
D|----------------------------------------------------------------------|
1:02
             Gm            Bb                  Dm
d|-----------1-------------0-------------------------------------|
A|--0--1--0--3-----0-1--3--5---5-3-1--3--1h3p1-0-----------------|
D|-----------5---5---------5-----------------------5-3--2-3-5-7--|
1:17
             Bb     A                 Dm
d|---------------------------------------|
A|---------------------------------------|
D|--0--0--2--3---2--7---5-3h5p3-2h3p2-0--|



« Τελευταία τροποποίηση: Μάιος 27, 2015, 12:05:11 πμ από krana »
krana
Global Moderator
Junior forumist
*****
Αποσυνδεδεμένος Αποσυνδεδεμένος

Μηνύματα: 154


« Απάντηση #10 στις: Μάιος 26, 2015, 11:45:16 μμ »

μια πρόχειρη παρτιτούρα για τον τσίφτη τον Andre. φίλε μου είχα πολύ καιρό να το ακούσω κι είχα ξεχάσει πόσο όμορφο κομμάτι είναι. :))


Το αίμα του ροδιού (Χειμερινοί Κολυμβητές)

Στίχοι: Ευάγγελος Ζάχος
Μουσική: Χειμερινοί Κολυμβητές
Δίσκοι: Η μαστοράντζα του Ερντεμπίλ (2005)



Intro (Cm Bb Eb F | Cm Bb Cm)

                     Bb         Eb              Bb
Στου Καραμπάχ τα υψίπεδα καλπάζει
            Bb      Eb            Bb
ένας ασίκης της Ανατολής
                    Eb     Cm            Bb
που άφησε το ροκάνι για το σάζι
                  Bb     Eb                  Cm
Σαγιάτ Νοβά ο αιώνιος σεβνταλής

Intro x2

Και λέει και τις χορδές γλυκά χτυπάει
τι μου 'κανες αγάπη μου ξανά
Το αίμα του ροδιού με κυνηγάει
κι όταν πονώ στενάζουν τα βουνά

Intro x2

Κι ο Καύκασος τ' ακούει και ρωτάει
από πού ειν' ο ασίκης που περνά
Και που σε τόσες γλώσσες τραγουδάει
πέρσικα, αρμένικα, γεωργιανά

Intro x2

Από τον πύργο της Βαβέλ κρατάει
είπε το όρος Αραράτ, τον είδα
Χωριό του ο έρωτας και τραγουδάει
πως η αγάπη δεν έχει πατρίδα

Intro x2

Λιώσανε πια στον Καύκασο τα χιόνια
κι είπανε στο Σαγιάτ το μυστικό τους
Και τώρα πάνω από διακόσα χρόνια
όλες οι φάρες της Ανατολής τον λεν δικό τους



Intro:
    Cm    Bb     Eb    F      Cm    Bb     Cm
e|--------------------------------------------|
B|--------------------------------------------|
G|--------------------------------------------|
D|---------------5--8--7-5-3------------------|
A|--3--6--5-3-1---------------3--6--5-3-1--3--|
E|--------------------------------------------|
0:02

Intro:
d|--1-------------0-5--8--7-5-3-3-1--------------1--|
A|--3---6--5-3-1----6-------------3---6--5-3-1-5-3--|
D|--5-5-------------5-------------5-5------------5--|
0:02


Couple:
d|----3--6--5-3-1-0-3----3--6--5-3-1-0-3--|
A|----3-----6-------3----3-----6-------3--|
D|----3-----5-------3----3-----5-------3--|
0:10

d|--8--3--5-8-7-5-3-1----5-3-1-0--3--1-0-----1--|
A|--5-----6--------------------1---------3-1-3--|
D|--5-----5--------------------0-------------5--|
0:20



« Τελευταία τροποποίηση: Μάιος 27, 2015, 08:27:34 μμ από krana »
Σελίδες: [1]   Πάνω
  Εκτύπωση  
 
Μεταπήδηση σε: