+ 
|-+  ΜΟΥΣΙΚΗ» Ταμπλατούρες» Παπακωνσταντίνου Θανάσης
Username:
Password:
Αποστολέας Θέμα: Παπακωνσταντίνου Θανάσης  (Αναγνώστηκε 12020 φορές)
krana
Global Moderator
Junior forumist
*****
Αποσυνδεδεμένος Αποσυνδεδεμένος

Μηνύματα: 154


« στις: Μάιος 14, 2011, 04:39:45 μμ »

Περιεχόμενα:

« Τελευταία τροποποίηση: Μάιος 27, 2015, 02:40:07 πμ από krana »
krana
Global Moderator
Junior forumist
*****
Αποσυνδεδεμένος Αποσυνδεδεμένος

Μηνύματα: 154


« Απάντηση #1 στις: Μάιος 15, 2011, 10:18:06 μμ »

Ερώτηση κρίσεως (Θανάσης Παπακωνσταντίνου)

Μουσική/Στίχοι: Θανάσης Παπακωνσταντίνου
Δίσκος: Ο ελάχιστος εαυτός (2011)



A x4

  A                                        E              A
Ρώτησα το σκύλο μου τον Ρίβα άμα νιώθει
Έλληνας αυτόχθονας ή κάτι σχετικό
    Am                 Dm         Am      Dm      C
εκείνος χασμουρήθηκε επέστρεψε στον ύπνο
           C                     E                                         A
κι η ανάσα του ήταν όμορφη σαν κύμα στο γιαλό
D    E                              A
εεε οοο γαμώ το φασισμό

A x6

Γυρνώ στην άγρια ροδιά και τη ρωτώ τα ίδια
αν Ελληνίς αισθάνεται λουσμένη από το φως
"πήρα σκυτάλη για ζωή για θάνατο σκυτάλη"
μου απαντάει ο κόκκινος στα κλώνια της ανθός
εεε οοο σαπίλα ο φασισμός                      
εεε οοο σαπίλα ο φασισμός



« Τελευταία τροποποίηση: Αύγουστος 06, 2015, 05:09:29 μμ από krana »
krana
Global Moderator
Junior forumist
*****
Αποσυνδεδεμένος Αποσυνδεδεμένος

Μηνύματα: 154


« Απάντηση #2 στις: Μάιος 17, 2011, 05:49:24 μμ »

Ο Τρυγητής (Μελίνα Κανά)

Μουσική/Στίχοι: Θανάσης Παπακωνσταντίνου
Δίσκος: Της αγάπης γερακάρης (1996)



A5x4

A5
Τα κάλλη σου βατόμουρα κι είπα να σου τα κόψω
αγκάθια μ' αγκυλώσανε μα ό,τι είναι θα τελειώσω
            C              Dm    A5                       C    Dm A5
εμένα κι αν μου τ' αρνηθείς κι ώσπου να καμαρώσεις
θα' ρθει ο άγριος τρυγητής κι ό,τι έχεις θα του δώσεις
γι' αυτό λοιπόν τα κάλλη σου σε μένα να τα δώσεις


Riff

Παράβλεψε τα λάθη μου και τα ελαττώματά μου
κοίτα πώς τρέμει η ανάσα μου και τ' ακροδάχτυλά μου
στο φως που τρέχει γρήγορα ν' ανέβεις γητευτή μου
κι αν γελαστώ κι αν τυφλωθώ θα' ναι η αμοιβή μου
στο φως ν' ανέβεις και να ρθεις αυτή είναι η γιορτή μου


Riff

Θέλω να πω στους βάρβαρους και στους ειδωλολάτρες
πως έχω βάρος και Θεό και γι' αυτονών τις πλάτες
θεό που κάθεται στη γη ξέρω τη γειτονιά του
που 'χει την αυταρέσκεια και δε θωρεί μπροστά του
μα σαν θα 'ρθει ο τρυγητής θα βρει τη γιατρειά του
θα 'ρθει ο άγριος τρυγητής να βρει τη γιατρειά του



Riff:
                  C              G                  Dm             A5
e|--------------1-3--5--3--1-0h1p0------------------------------------|
B|--5-3h5-1-3-5--------------------3----0-1-0-1-3-5-3--1-0------------|
G|--------------------------------------------------------2--4-2h4-2--|
D|--------------------------------------------------------------------|x2
0:59


Riff:
                  C                G                Dm             A5
d|--2-0h2---0-2-3-5--7--5--3-2h3p2-0------------0-2-0-----------------|
A|--------3-----------------------------2-3-2-3-------3-2-0--2-2h4-2--|
D|--------------------------------------------------------------------|x2
0:59




« Τελευταία τροποποίηση: Ιούλιος 14, 2014, 09:39:17 πμ από krana »
*MadmaX*
Junior forumist
*****
Αποσυνδεδεμένος Αποσυνδεδεμένος

Μηνύματα: 54


« Απάντηση #3 στις: Σεπτέμβριος 11, 2011, 10:53:52 μμ »

Καλησπέρα παιδιά. Το τραγούδι, το είχα ανεβάσει στο συγγενικό φόρουμ (για τρίχορδο) και σκέφτηκα να το περάσω κι εδώ.
Το καντίνι κάτω όπως βλέπετε.
«Πεχλιβάνης»
Θανάσης  Παπακωνσταντίνου

ΕΙΣΑΓΩΓΗ
0------------------------------------------------------5--
0---------------------------------------------3-2-0------
7—7-7-7—5-3--3-3-3—2-0--0-0-0---------------

5------------------------------------------
—0-2-3-5-3-7-3-5—5-7-------------  
 --------------------------------3-7-5----            Γύρισμα    7-5-3-5-2-3

0------------------------------------------------------5--
0---------------------------------------------3-2-0------
7—7-7-7—5-3--3-3-3—2-0--0-0-0---------------

5---------------------------------------
—0-2-3-5-3-7-3-5---3----3-------
 -------------------------2-----0---

ΤΡΑΓΟΥΔΙ
5------------------------------------------------------
3-----------------------------------------------------3
2---2-2-2-2-3—2-2-2-0-0-----8-7-8-5-7-3-2----
                                                                                                 2 ΦΟΡΕΣ
----------------------------------------------
-------------------------------3-----3------
2-2-2-2-3—2-2-2-0-0----------2------0—

10--------------------------------------
8---------------------------------------
7---7-7-7-7-8-7-5-3-3—5-7-5-7-

12---------------------------------------------
10--------------------------------------------
8---8-8-8-8-10-8-10-8-7---7-5-3-5-7-

5------------------------------------------------------
3-----------------------------------------------------3
2---2-2-2-2-3—2-2-2-0-0-----8-7-8-5-7-3-2----
                                                                                                 2 ΦΟΡΕΣ
----------------------------------------------
-------------------------------3-----3------
2-2-2-2-3—2-2-2-0-0----------2------0—
« Τελευταία τροποποίηση: Δεκέμβριος 29, 2013, 07:02:23 μμ από krana »
rakias
Newbie
*
Αποσυνδεδεμένος Αποσυνδεδεμένος

Μηνύματα: 12


« Απάντηση #4 στις: Οκτώβριος 19, 2011, 05:22:04 μμ »

Θα βάλω το san michele του Θαναση Παπακωνσταντίνου που το χω βαλει και στο άλλο θεμα με το 3χορδο:

ΛΟΓΙΑ
Δε μ'αναγνω--ρίζετε γιατι-έλειπα-και-ρόοοο  τα δα.....           κα-α-τι
  (3)--(3)-(3)-3--3-3-----8-8-6-6--------5--1--1-1-5-5-3-3-1--0-(3)

όταν έχει επανάληψη του 1ου στίχου της στροφής στο τέλος:

3-3-3-5-5-5-1-1-0-0-(3)

ΜΕΛΩΔΙΑ

5---5-8-5-3-5-5-5-5-5-3-0-1-------1-(3)-1-(3)-(1)-(1)-(1)-(1)-(1)-(1)-((6))-((5))

στην μελωδία κάνει με το κλαρίνο μετά τις πρώτες στροφές:

5---5-8-5-3-6-6-6-6-6-8-5

Ερχεται και το Σιμούν!
« Τελευταία τροποποίηση: Δεκέμβριος 16, 2013, 08:20:19 πμ από krana »
krana
Global Moderator
Junior forumist
*****
Αποσυνδεδεμένος Αποσυνδεδεμένος

Μηνύματα: 154


« Απάντηση #5 στις: Μάιος 21, 2012, 06:39:49 πμ »

Τρία ρουμπαγιάτ (Γιώργος Μιχαήλ)

Μουσική: Θανάσης Παπακωνσταντίνου
Στίχοι: Ομάρ Καγιάμ
Δίσκος: Αγία Νοσταλγία (1993)




Riff (Gm D# x2)


Intro (Gm Gm | Gm Gm | Gm Cm Cm | Gm Gm | Gm Gm | Gm Cm | Gm)


 Gm                                              Cm    Gm
Σήκω και δώσε μου κρασί τα λόγια είναι χαμένα
απόψε το χειλάκι σου θα 'ναι το παν για μένα
   Gm               F    A# Cm                 Gm
κι όσο για τα ταξίματα και για τα κρίματά μου
 Gm          F        A#   Cm F                Cm   Gm
τα βλέπω σαν τα κατσαρά μαλλιά σου μπερδεμένα


Intro


Για 'κείνα που δεν έκανα και που 'χω καμωμένα
αν έχω τη ζωή σωστά είτε στραβά παρμένα
αυτό θα 'ν' το μαράζι μου κρασί λοιπόν ποιος ξέρει
μη βγαίνει τούτ' η αναπνοή στερνή φορά από μένα


Intrο


Όταν θελήσει η μοίρα μου τον κόσμο αυτό ν' αφήσω
και κάθ' ελπίδα για ζωή απ' την καρδιά μου σβήσω
μια κούπα από τη στάχτη μου να φτιάξετε συντρόφοι
σαν θα γεμίζει με κρασί μπορεί να ξαναζήσω


Intro



Riff:
    Gm      D#
e|-------------------|
B|-----3-3--4--------|
G|------3------5--3--|
D|--5----------------|
A|-------------------|
E|-------------------| x2
0:00


Riff:
    Gm        D#
d|------------1--------|
A|-----5p1-5-----3--1--|
D|--5------------------| x2
0:00


Intro:
    Gm                                             Cm           Gm
d|-----------1--0-----------------------5--0--00--------------013--0100---0-00--|
A|-----4--5-----------1-h3-p1-0----1--11--------1h33--3333--3-------------------|
D|--5-------------(5)-----------5-------------------------5-------------5-------|
0:03

    Gm                             Cm      Gm
d|-----------1--0-----------------------0--5--------5--|
a|-----44-5-----------1h3-1h3p1----3-------------1--1--|
D|--5-------------(5)-----------5-------------5-----5--|
0:12


Verse:
    Gm                                             Cm           Gm
d|-----------1--0-----------------------5--0--00--------------013--0100---0-00--|
A|-----4--5-----------1-h3-p1-0----1--11--------1h33--3333--3-------------------|
D|--5-------------(5)-----------5-------------------------5-------------5-------|
0:17

    Gm                                             Cm           Gm
d|-----------1--0-----------------------5--0--00--------------013--0100---0-00---0-0--|
A|-----4--5-----------1-h3-p1-0----1--11--------1h33--3333--3-------------------------|
D|--5-------------(5)-----------5-------------------------5-------------5------5------|
0:26

    Gm        F           A#          Cm                             Gm
d|--8--8-8-8--7-h8-p7--5--3--3-3--0-0----1--5-5----5-5--7-7--8---10--8-7-5--0--5--5-5-0--|
A|------------------------------------3---------3------------------------------1---------|
D|-----------------------------------------------------------------------------5---------|
0:35/1:21/2:10

    Gm        F           A#          Cm         F         Cm     Gm
d|--8--8-8-8--7-h8-p7--5--3--3-3--0-0----1--5-5--3--7--10--13--15-13h15p13-12-----12--|
A|------------------------------------3-------------------------------------------10--|
D|-----------------------------------------------------------------------------0---0--|
0:43/1:30/2:17




« Τελευταία τροποποίηση: Ιούλιος 11, 2014, 08:38:36 πμ από krana »
krana
Global Moderator
Junior forumist
*****
Αποσυνδεδεμένος Αποσυνδεδεμένος

Μηνύματα: 154


« Απάντηση #6 στις: Δεκέμβριος 15, 2013, 04:50:26 πμ »

Τα παξιμάδια (Σωκράτης Μάλαμας)

Μουσική/Στίχοι: Θανάσης Παπακωνσταντίνου
Δίσκος: Διάφανος (2006)



Intro ( D D | Bm Bm | F#m A | Bm Bm ) x2

               EmBmA       Bm                  D A    D Em
Βαρκάρη του Αχέροντα σ' έχουν ξεδιαλεγμένο
                   Bm                  Em                A           Bm
να 'χεις μολύβι στην καρδιά στα μάτια νυχτερίδες
κι όσους ρωτoύν για συγγενείς να λες πως δεν τους είδες


Intro x2

Ήρθα κι εγώ ένα πρωινό που 'χαν τα χόρτα πάχνη
μήτε στη βάρκα ν' ανεβώ ούτε για να ρωτήσω
στην όχθη μόνο να σταθώ και να σου τραγουδήσω


Intro x2

Φοράει ο μέρμηγκας γυαλιά κι οι πέτρες έχουν γένια
έχεις κι εσύ κακόμοιρε κουπιά σε μαύρα χάλια
που μόλις πέσουν στο νερό λιώνουν σαν παξιμάδια


Intro x2



Intro:
                   D                            Bm
d|-----------0--2--4--4-4-4-4-4-4-4-4-5-4-2-4-2-0--0-0--2-0-------------|
A|--2---2--------------------------------------4-----------4-2--2-2--2--|
D|--0---0---------------------------------------------------------------|
0:00

      F#m           A          Bm
d|--4-----------------------2-----------------------|
A|----4--4-4--5-4-2-0--5-4-5-4-2-2--2-2-2--2-2-2-2--|
D|--------------------------------------------------|
0:07







και μπόνους λάιβ εκτέλεση από τον Γιώργο Μιχαήλ, πριν κυκλοφορήσει στον δίσκο:



« Τελευταία τροποποίηση: Δεκέμβριος 16, 2013, 08:19:28 πμ από krana »
krana
Global Moderator
Junior forumist
*****
Αποσυνδεδεμένος Αποσυνδεδεμένος

Μηνύματα: 154


« Απάντηση #7 στις: Ιούνιος 30, 2014, 10:39:59 μμ »

παρακάτω γράφω τη μελωδία που παίζεται ανάμεσα στα κουπλέ, σε τρεις διαφορετικές εκδοχές: μία για κιθάρα, μία για τρίχορδα σε δυο χορδές και μία για τρίχορδα σε μία χορδή. για τις συγχορδίες δεν είμαι απόλυτα σίγουρος, όποιος έχει κάποια διόρθωση ας τη στείλει. αφιερωμένο στον Τάσο τον Πολίτη. καλό καλοκαίρι μάγκες. :)


Ανδρομέδα (Θανάσης Παπακωνσταντίνου)

Μουσική/Στίχοι: Θανάσης Παπακωνσταντίνου
Δίσκος: Στην Ανδρομέδα και στη Γη (1995)



F#m                A       Bm          F#m
Άιντε μες στης γης το πυρωμένο κέντρο
F#m               A        E                 F#m
άιντε δυο πουλιά φιλιούνται σ' ένα δέντρο
A                                             Bm  
άιντε πέφτει λάβα λάβα απ' τα φιλιά τους
A                                  E                    F#m
άιντε και φτερά απολιθωμένα απ' τα κορμιά τους

Solo ( F#m A E Bm | F#m Bm E-A-F#m E-A-F#m )

Άιντε εκεί μακριά μακριά στην Ανδρομέδα
άιντε πίνουν τσίπουρο και τρων λακέρδα
άιντε κάτι όντα περίεργα κι ωραία
άιντε που 'ναι μόνα και ψάχνουν για παρέα

Solo

Άιντε εκεί ψηλά στην άκαρπη Μελούνα
άιντε φύτρωσε φύτρωσε μια παπαρούνα
άιντε που 'χει στόμα στόμα και δαγκάνει
άιντε κι όλο λέει πως δεν το ξανακάνει

Solo

Άιντε εκεί βαθιά βαθιά στα σωθικά μου
άιντε κάτι γί- γίνεται κυρά μου
άιντε χίλια άλογα τρελά γυρίζουν
άιντε έξοδο ζητάν και μ' αλωνίζουν

Solo

Άιντε εδώ σιμά κοντά δυο μέτρα βάθος
άιντε λεν πως φυλακίζουνε το πάθος
άιντε ρίχνουν χώμα με λουλούδια ραίνουν
άιντε και θαρρούν θαρρούν πως ξεμπερδεύουν



Solo (κιθάρα):
      F#m             A                   E                  Bm
e|--9-7--9---7------7-9--10-7--9----------7--9-7-------------7--|
B|--------10--9--10--------------10--9-10--------10-9-10-9-7----|
G|--------------------------------------------------------------|
D|--------------------------------------------------------------|
A|--------------------------------------------------------------|
E|--------------------------------------------------------------|
0:31
         F#m                  Bm
e|-----7-9--10-12-14-9--14-12-10--12-9--10-7--|
B|--10----------------------------------------|
G|--------------------------------------------|
D|--------------------------------------------|
A|--------------------------------------------|
E|--------------------------------------------|
0:39
    A         E       F#m A        E      F#m
e|--------------------------------------------|
B|----7-9-10------7-9-7-----7-9-10-----7-9-7--|
G|--9---------7-9---------9--------7-9--------|
D|--------------------------------------------|
A|--------------------------------------------|
E|--------------------------------------------|
0:43


Solo (τρίχορδο, πιάσιμο #1):
       F#m              Α                    Ε                     Bm
d|--11-9--11---9------9-11--12-9--11---------9--10-9---------------9--|
A|----------12--11--12--------------12--11-12--------12-11-12-11-9----|
D|--------------------------------------------------------------------|
0:31
        F#m                    Bm
d|----9-11--12-14-16-11--16-14-12--14-11--12-9--|
A|--12------------------------------------------|
D|----------------------------------------------|
0:39
    A          E        F#m A          E        F#m
d|-------------------------------------------------|
A|--7-9-11-12--5-7-9-11-9---7-9-11-12--5-7-9-11-9--|
D|-------------------------------------------------|
0:43


Solo (τρίχορδο, πιάσιμο #2):
       F#m                   A                       E                     Bm
d|--11-9--11-7--9-6h7-6--7-9-11--12-9--11-7h9-7--6-7-9--10-9h10-7-6-7-6-4-s9--|
A|----------------------------------------------------------------------------|
D|----------------------------------------------------------------------------|
0:31
        F#m                             Bm
d|--7-9-11--12-14-16-11h12-11--16h18-14-12--14-11--12-9--|
A|-------------------------------------------------------|
D|-------------------------------------------------------|
0:39
    A        E       Fm  A        E       Fm
d|--2-4-6-7--0-2-4-6-4---2-4-6-7--0-2-4-6-4--|
A|-------------------------------------------|
D|-------------------------------------------|
0:43




« Τελευταία τροποποίηση: Ιούνιος 30, 2014, 11:07:27 μμ από krana »
krana
Global Moderator
Junior forumist
*****
Αποσυνδεδεμένος Αποσυνδεδεμένος

Μηνύματα: 154


« Απάντηση #8 στις: Ιούλιος 09, 2014, 01:05:09 πμ »

μια εκδοχή του τραγουδιού για τρίχορδα υπάρχει εδώ. Παρακάτω γράφω τις συγχορδίες για κιθάρα, μια προσπάθεια για απόδοση της γκάιντας στην κιθάρα, ξανά την εισαγωγή για τρίχορδο με πιο απλά πιασίματα (εδώ μπορούν να μπουν διάφορα γεμίσματα) και τέλος τις συγχορδίες όπως τις παίζω στον τζουρά. στον μπαγλαμά μπορούν εύκολα να χρησιμοποιηθούν κι άλλα πιασίματα, καθώς έχει μικρότερα τάστα.



Μιλώ για σένα (Μελίνα Κανά)

Μουσική/Στίχοι: Θανάσης Παπακωνσταντίνου
Δίσκος: Λάφυρα (1998)



Intro (Bm G B Em | Bm G A Bm)

     Bm            G       A             Bm       A      D    A  Bm
Μιλώ με τα ψηλά τ' απάτητα βουνά και τους μιλώ για σένα
      Bm             G          A            Bm      D             A Bm
πως έχεις ομορφιά και φρύδια τοξωτά σαν πέτρινα γεφύρια

Bm F#m x2

A                   D A                 Bm
Και μ' απάντησαν τα γεφύρια χορταριάζουν
A              D F#m           Bm
άμοιρη ψυχή μην ξεγελαστείς


Intro

Μιλώ με τ' ουρανού τα μαύρα σύννεφα και τους μιλώ για σένα
πως όταν περπατάς γλυκά όπου πατάς η στέρφα γη ανθίζει

Bm F#m x2

Και μ' απάντησαν η γη ανθίζει εκεί που θέλει
άμοιρη ψυχή μην ξεγελαστείς


Intro

Μιλώ με τις πηγές που ζούνε μοναχές και τους μιλώ για σένα
πως όταν με κοιτάς σαν λες πως μ' αγαπάς αγγέλοι φτερουγίζουν

Bm F#m x2

Και μ' απάντησαν είναι χάρτινοι οι αγγέλοι
άμοιρη ψυχή μην ξεγελαστείς


Solo

Bm F#m x2

Και μ' απάντησαν είναι χάρτινοι οι αγγέλοι...



Intro:
     Bm    G         B           Em
e|----------------------------------------------|
B|--s7---5h3h2p3---0-4---0-2-0-3s5--5h7-3--5-3--|
G|----------------------------------------------|
D|----------------------------------------------|
A|----------------------------------------------|
E|----------------------------------------------|
0:03
      Bm     G           A                 Bm
e|--------------------------------------------|
B|--5s7---5h3h2p3--2-3-3s5--0h2p0-2h3p2-------|
G|---------------------------------------2-4--|
D|--------------------------------------------|
A|--------------------------------------------|
E|--------------------------------------------|
0:05


Intro:
    Bm          G           B            Em
d|--16--16--16--12--12--12--13--13--13-9-14--14--12-14--|
A|------------------------------------------------------|
D|------------------------------------------------------|
0:03

    Bm          G           A               Bm
d|--16--16--16--12--12--12--14---11-12--11--9--9--9--|
A|---------------------------------------------------|
D|---------------------------------------------------|
0:05


Chords:
    Bm    G     A     D    F#m
d|--4--|--5--|--0--|--4--|--4--|
A|--2--|--5--|--2--|--5--|--4--|
D|--4--|--5--|--0--|--7--|--4--|



krana
Global Moderator
Junior forumist
*****
Αποσυνδεδεμένος Αποσυνδεδεμένος

Μηνύματα: 154


« Απάντηση #9 στις: Μάιος 27, 2015, 02:37:24 πμ »

Μαλαματένια μου ζωή (Μελίνα Κανά)

Μουσική/Στίχοι: Θανάσης Παπακωνσταντίνου
Δίσκος: Της αγάπης γερακάρης (1996)



Intro (E E Dm F | E Am E Am)

        Am             G     Am        Am  G           Am
Μαλαματένια μου ζωή και φρύγανά μου χρόνια
         C                   Dm              A                   Dm
τους έρωτές μου συναντώ σε μαρμαρένια αλώνια
      Am              G     Am        E                   Am
μαλαματένια μου ζωή και φρύγανά μου χρόνια

Riff (Am)

  Am Dm G                  C      E
Δωσ' μου της αγάπης γερακάρη
  F C G                     Am
μύθο για να κρατηθώ
  Am Dm G                    C      E
Δωσ' μου το φιλί της προδοσίας
   F  C  E                      Am
το πανάρχαιο φυλακτό


Intro

Το γέλιο και το δάκρυ μου σε μια ζαριά κλεισμένα
ζάρια τα μάτια τα τυφλά τα διπλοκλειδωμένα
το γέλιο και το δάκρυ μου σε μια ζαριά κλεισμένα

Riff

Δωσ' μου της αγάπης γερακάρη...


Solo

Γερμένη βάρκα στην ακτή γυρεύει λαμνοκόπους
κι εγώ αγαπώ τους ξένους μου τους πιο δικούς μου ανθρώπους
βάρκα γερμένη στην ακτή γυρεύει λαμνοκόπους

Riff

Δωσ' μου της αγάπης γερακάρη...

Intro


Μελωδία για τρίχορδο:

Intro:
    E                             Dm                 F
    \  \ /  / \  \
d|--2--2-2--2-2--2--2-0-----------0h3-2-0-----------------------|
a|--0--0-0--0-0--0-----3h5p3-2-0---------3h5p3-2-0-2s3--3--3-3--|
D|--2--2-2--2-2--2----------------------------------------------|
0:02
   E              Am             E                Am
d|-------------------7-6-3h7p3-2---------------------|
a|----0-2h3p2-0---0-------------------0-2h3p2-0---0--|
D|--6-----------6-----------------2-6-----------6----|
0:08


Riff:
    Am
d|------------------0-2--|
A|--2h3p2-0---0-2-3------|
D|----------6------------|
0:29


Refrain:
    Am           Dm           G            C        E
d|--2--2-2--2-2--7--7-7--7-7--5--5-7-5--3--2h3p2--0-------|
A|--------------------------------------------------3--2--|
D|--------------------------------------------------------|
0:30
    F            C           G           Am
d|---------------------------0--0-0-0----2--2-2--2----|
A|--0--0-0--0-0--3--3-3--3-3-----------3-----------0--|
D|----------------------------------------------------|
0:35
    Am           Dm           G            C        E
d|--2--2-2--2-2--7--7-7--7-7--5--5-7-5--3--2h3p2--0-------|
A|--------------------------------------------------3--2--|
D|--------------------------------------------------------|
0:40
    F            C            E          Am
d|----------------------------------0-----------------|
A|--0--0-0--0-0--3--3-3--3-3--2--2-3--2--0--0-0--0-0--|
D|----------------------------------------------------|
0:45



Μελωδία για κιθάρα:

Intro:
    E                          Dm                F
    \  \ /  / \  \                               \  \ /  / \  \
e|---------------------------------------------------------------|
B|---------------------------------------------------------------|
G|---------------------------------------------------------------|
D|--2--2-2--2-2--2--2p0--------0-3-2-0-----------3--3-3--3-3--3--|
A|--2--2-2--2-2--2------3-2-0----------3h5p3-2-0-3--3-3--3-3--3--|
E|--0--0-0--0-0--0-------------------------------1--1-1--1-1--1--|
0:02
   E              Am           E              Am
e|-----------------------------------------------|
B|-----------------------------------------------|
G|-----------------------------------------------|
D|-------------------7-6-3h6-2-------------------|
A|----0-2h3p2-0---0-----------------0-2h3p2---0--|
E|--4-----------4---------------0-4---------4----|
0:08

Riff:
    Am
e|-----------------------|
B|-----------------------|
D|-----------------------|
G|------------------0-2--|
A|--2h3p2-0---0-2-3------|
E|----------4------------|
0:29



« Τελευταία τροποποίηση: Αύγουστος 06, 2015, 05:11:07 μμ από krana »
Σελίδες: [1]   Πάνω
  Εκτύπωση  
 
Μεταπήδηση σε: