Αποστολέας Θέμα: Παρτιτούρες για Μπαγλαμά Τζουρά 3χορδο μπουζούκι...  (Αναγνώστηκε 2318224 φορές)
apollon1
Newbie
*
Αποσυνδεδεμένος Αποσυνδεδεμένος

Μηνύματα: 2


« Απάντηση #180 στις: Νοέμβριος 24, 2009, 01:08:01 μμ »

MIPOS EXEI KAPIOS TO TRAGOUDI (TSIGARAKI MOU STRIFTO)
EUXARISTO
kostas sinaplidis
Newbie
*
Αποσυνδεδεμένος Αποσυνδεδεμένος

Μηνύματα: 14


« Απάντηση #181 στις: Νοέμβριος 27, 2009, 12:04:09 μμ »

Γειά σας μάγκες!

Θα ήθελα την βοήθεια σας για την αρχή δύο τραγουδιών του Μ. Βαμβακάρη. Πρόκειται για το ¨Ολοι ρεμπέτες του ντουνιά¨και το ¨Χαιδάρι¨!! Σας ευχαριστώ!

Με την σειρά μου, ετοιμάζω το ¨Εφουμερναμ’ένα βράδυ¨!!
ΘΟΔΩΡΗΣ
Junior forumist
*****
Αποσυνδεδεμένος Αποσυνδεδεμένος

Μηνύματα: 75


« Απάντηση #182 στις: Νοέμβριος 28, 2009, 04:10:36 μμ »

Το ''τσιγαράκι μου στριφτό'' των Χαίνηδων είναι οντως τραγουδάρα...είναι εδώ,το λέει ο Μάλαμας στον δίσκο τους..αν μπορεί κάποιος ασ το βγάλει...από Μάλαμα έχει βγάλει κανείς τίποτα άλλο?

kosgia alaniaris
Newbie
*
Αποσυνδεδεμένος Αποσυνδεδεμένος

Μηνύματα: 16


« Απάντηση #183 στις: Νοέμβριος 28, 2009, 08:59:49 μμ »

ΜΠΡΑΒΟ ΡΕ ΜΑΓΚΕΣ ΑΥΤΗ ΕΙΝΑΙ ΔΟΥΛΕΙΑ! ΠΑΙΖΩ 8ΧΟΡΔΟ ΚΑΙ ΠΡΟΧΘΕΣ ΑΠΟΚΤΗΣΑ ΚΑΙ ΤΟ ΤΖΟΥΡΑΔΑΚΙ ΜΟΥ! ΑΛΛΗ ΦΑΣΗ! ΠΟΛΥ ΜΑΓΚΙΤΙΚΟ ΟΡΓΑΝΑΚΙ! ΚΑΙ ΒΕΒΑΙΑ ΜΟΛΙΣ ΒΡΗΚΑ ΤΗ ΣΕΛΙΔΑ ΣΑΣ ΠΗΡΑ ΠΕΡΙΣΣΟΤΕΡΟ ΘΑΡΡΟΣ ΓΙΑ ΜΙΑ ΝΕΑ ΑΡΧΗ ΜΕ ΤΟ ΟΡΓΑΝΟ ΑΥΤΟ! ΣΥΝΕΧΙΣΤΕ ΝΑ ΣΤΕΛΝΕΤΕ ΤΡΑΓΟΥΔΙΑ! ΜΗΠΩΣ ΞΕΡΕΙ ΚΑΠΟΙΟΣ ΤΟ 'ΜΑΥΡΑ ΜΑΤΙΑ ΜΑΥΡΑ ΦΡΥΔΙΑ" ΤΟΥ ΜΕΓΑ ΜΑΡΚΟΥ? ΑΝ ΝΑΙ ΝΑ ΤΟ ΣΤΕΙΛΕΙ ΝΑ ΤΟΥ ΕΙΝΑΙ ΕΥΚΟΛΟ! ΕΥΧΑΡΙΣΤΩ
ΡΕΜΠΕΤΗΣ
Newbie
*
Αποσυνδεδεμένος Αποσυνδεδεμένος

Μηνύματα: 42


« Απάντηση #184 στις: Νοέμβριος 29, 2009, 08:24:36 μμ »

"ΜΑΥΡΑ ΜΑΤΙΑ  ΜΑΥΡΑ ΦΡΥΔΙΑ"  - (Μ. ΒΑΜΒΑΚΑΡΗΣ)

(Οι κόκκινες παίζονται γρήγορα)

7--7--12--12--7-8-7-5-------------5--------------8-7-6---6-7-
-----------------------8-8-8-8-8-7---8-8-7-7-5-5-------8-----
---------------------------------------------------------------


7--7--12--12--7-8-7-5-------------5------------------0--
-----------------------8-8-8-8-8-7---8-8-7-7-5-5--0--0--
-------------------------------------------------------3--

Στίχοι
0------7--7--12--10--8--7--5------------------5-7--------5-7--    }
0--5-8-------------------------8--7--7--8-7-8------8-7-8------    }
3--------------------------------------------------------------     }
                                                                                             }
                                                                                             }    Χ2
----7--7--12--10--8--7--5------------5------------                     }
5-8-------------------------8--7--7----8-7-8-5----                     }
---------------------------------------------------                      }



« Τελευταία τροποποίηση: Δεκέμβριος 18, 2013, 04:46:04 πμ από krana »
ΡΕΜΠΕΤΗΣ
Newbie
*
Αποσυνδεδεμένος Αποσυνδεδεμένος

Μηνύματα: 42


« Απάντηση #185 στις: Νοέμβριος 29, 2009, 10:03:21 μμ »

"ΟΛΟΙ ΟΙ ΡΕΜΠΕΤΕΣ ΤΟΥ ΝΤΟΥΝΙΑ"   (Μ. ΒΑΜΒΑΚΑΡΗΣ)

(οι κόκκινες παίζονται γρήγορα, και οι υπογραμμισμένες τριάδες είναι τρίηχα)

--4--4--5-4-3-4-6--7--6--7----4--4--5-4-3-4-6-6-6-6-7----
5----------------------------5------------------------------
-------------------------------------------------------------

--4--4--5-4-3-4-6--7--6--7--7-6-9-7-5-4-3-4-------4----
5---------------------------------------------5--0--5----
----------------------------------------------------7----

   { 5-5-5-----5--------------5-7-8-7--5-7-5---5-------------------
Α { --------7-----8-7-5--7-8-----------------8--8-7-8-7-8----8----
   { ----------------------------------------------------------------


5-5-5-----5--------------5-7-8-7--5-7-5---5---------------0--
--------7-----8-7-5--7-8-----------------8--8-7-8-7-5--0--0--
------------------------------------------------------------3--


Στίχοι
---------7--5--------------------7-8-7-5---5-------4
5----8---------8--7--8-7-5---------------8---8-7-8--
-----------------------------------------------------

5----5--7--8--12--11-12-11-8-7------7-5-------5-7-4-5-7
------------------------------------------8-7-8-----------
----------------------------------------------------------

8----5--7--8--12--11-12-11-8-7------7-5---5-------5-7--
------------------------------------------8---8-7-8------
----------------------------------------------------------

--------7--5----------------7-8-7-5------------5-7-4-5-7
7----8--------8--7--8-7-5-----------8-7-5-7-8-----------
----------------------------------------------------------

8----5--7--8--12--11-12-11-8-7------7-5--5-------5-7--
------------------------------------------8--8-7-8------
---------------------------------------------------------

--------7--5----------------7-8-7-5------------0
7----8--------8--7--8-7-5-----------8-7-5--0--0
------------------------------------------------3      Και συνεχίζουμε από το σημείο Α



« Τελευταία τροποποίηση: Ιανουάριος 15, 2014, 10:21:44 πμ από krana »
*MadmaX*
Junior forumist
*****
Αποσυνδεδεμένος Αποσυνδεδεμένος

Μηνύματα: 54


« Απάντηση #186 στις: Νοέμβριος 30, 2009, 12:23:24 πμ »

Φίλε ΡΕΜΠΕΤΗ, είσαι μεγάλο κεφάλαιο! Ένα μεγάλο "ΜΠΡΑΒΟ" για τον εξής λόγο: Όλοι οι υπόλοιποι εδώ μέσα, κάτι έχουμε να πάρουμε! κάτι δίνουμε κάτι παίρνουμε! Εσύ, αδερφέ, το κάνεις, μόνο, για να δώσεις!
kosgia alaniaris
Newbie
*
Αποσυνδεδεμένος Αποσυνδεδεμένος

Μηνύματα: 16


« Απάντηση #187 στις: Νοέμβριος 30, 2009, 04:50:40 μμ »

 

ΣΕ ΕΥΧΑΡΙΣΤΩ ΠΟΛΥ ΡΕΜΠΕΤΗ! ΕΙΣΑΙ ΜΕΓΑΛΟΣ ΚΑΙ ΓΟΥΣΤΑΡΕΙΣ ΑΥΤΟ ΠΟΥ ΚΑΝΕΙΣ!! ΛΙΓΟΥΣ ΤΕΤΟΙΟΥΣ ΕΧΩ ΓΝΩΡΙΣΕΙ! ΕΔΩ ΠΡΟΣΠΑΘΩ ΝΑ ΠΕΙΣΩ ΚΑΙ ΤΟΝ ΕΑΥΤΟ ΜΟΥ!!! ΦΑΝΤΑΣΟΥ!!!! ΕΙΣΑΙ ΟΜΩΣ ΔΥΝΑΤΟ ΚΙΝΗΤΡΟ!!! ΜΠΡΑΒΟ
χαρης
Newbie
*
Αποσυνδεδεμένος Αποσυνδεδεμένος

Μηνύματα: 16


« Απάντηση #188 στις: Νοέμβριος 30, 2009, 06:09:49 μμ »

φιλε ρεμπετης .τις ταμπλατουρες τις βγαζεις απτο μυαλο σου η μηπως εχεις κανα βιβλιο με παρτιτουρες ;
στο τραγουδι μαυρα ματια εχει καποια λαθη.

παντως ειναι καλο που βαζεις τις ταμπλατουρες και διευκολυνεται ο κοσμος.
ΡΕΜΠΕΤΗΣ
Newbie
*
Αποσυνδεδεμένος Αποσυνδεδεμένος

Μηνύματα: 42


« Απάντηση #189 στις: Νοέμβριος 30, 2009, 07:08:43 μμ »

Παιδιά ευχαριστω για τα λόγια σας, ότι κάνω το κάνω γιατί αγαπάω τα συγκεκριμένα τραγούδια, όπως κι εσείς άλλωστε.
Φίλε Χάρη τα περισσότερα τραγούδια τα έχω μάθει από παρτιτούρες
Συγκεκριμένα το μαύρα μάτια είναι από παρτιτούρα. Αν όμως βλέπεις κάποιο λάθος (και οποιοσδήποτε άλλος εννοείται), καλό είναι (χωρίς παρεξήγηση), να το επισημαίνουμε για να μην το μαθαίνουν λάθος και οι υπόλοιποι.
Πάντως απ΄ οτι βλέπω πάμε πολύ καλά.
apollon1
Newbie
*
Αποσυνδεδεμένος Αποσυνδεδεμένος

Μηνύματα: 2


« Απάντηση #190 στις: Νοέμβριος 30, 2009, 09:33:19 μμ »

GIASAS
paidia kanetai kali doulia kai brawo sta paidia pou afierounoun to xronotous kai mas woithane
mia erotisi mipos ginete na waloume kai liges partitoures me tablatoures
an auto eine epitrepomeno
giasas kai ta leme
jojo
Newbie
*
Αποσυνδεδεμένος Αποσυνδεδεμένος

Μηνύματα: 7


« Απάντηση #191 στις: Νοέμβριος 30, 2009, 10:56:12 μμ »

kalhspera ki ena megalo megalo eyxaristw se oloys esas poy paleyete kai anevazete tragoydia olon ayto ton kairo kai mas dinete toso kalo yliko. ayto to forum htan aformh na ksanapiasw to mpoyzoyki poy to eixa apo dhmotiko akoma, sarakofagomeno kai skevromeno to kahmeno, toy evala 6 anti gia 8 xordes kai akoygetai super (?) (parhgoriemai mexri na parw kanena tzoyra ths prokophs).
h8ela apo kairo na dokimasw na perasw kapoio tragoydi se tab, vrhka xrono kai dia8esh shmera kai idoy h prwth apopeira kai elpizw na mporesw na paw kai gia alles.
einai to OTAN SYMVEI STA PERIX. phre arketh wra alla toy evala kai stixoys akrivws panw stis notes kai twra einai senio kai peripoihmeno


OTAN SYMVEI STA PERIX by TSITSANIS


eisagwgh
--7--7--9--11--12-11-12-14-11-12-9-7-11-12-9-11-7-9-5-7-4-3-4-5-7-9-6-9-7
-------------------------------------------------------------------------------
-------------------------------------------------------------------------------


--7--7--9--11--12-11-12-14-11-12-9-7-11-12-9-11-7-9-5-7-4-12-11-9-7-5-4-2-0-------
----------------------------------------------------------------------------------0-2-4
----------------------------------------------------------------------------------------


----gia-ti-rw-ta-te-na-sas-pw------------------------------------
-0-----0--2--4--2--0------0-----0--0-2-4-2-4-2-2-0--2-0--------
----0----------------4-2-4--------0-----------------4-----0-2-4-
-----------------------------------------------------------------


---afoy-sas-ei-nai-pia-gnwsto------------------------------------
0-----0--2--4--2--0-------0-----0--0-2-4-2-4-2-2-0--2-0-2---2-
----0----------------4-2-4--------0-----------------4-------4---
-----------------------------------------------------------------


----o-tan-sym-vei-sta-pe-rix---fw-ties-na-kai-ne
-0--4--5--7---9---9---9---9----9--11--9--7--7----
----5--7--9--10--10--10--10---10-12-10--9--9----
---------------------------------------------------


------------pinoyn-oi-mages-ar-gi--le---
-7-9-7-6-5---5--5--5--5--5--5--5--4---12-11-9-7-9-5-7-4-5-2-4-0-2---2--
9-10-9-8-7---7--7--7--7--4--2--4--5---------------------------------4----
---------------------------------------------------------------------------


----o-tan-sym-vei-sta-pe-rix---fw-ties-na-kai-ne
-0--4--5--7---9---9---9---9----9--11--9--7--7----
----5--7--9--10--10--10--10---10-12-10--9--9----
---------------------------------------------------


------------pinoyn-oi-mages-ar-gi--le-------------------------------------
-7-9-7-6-5---5--5--5--5--5--5--5--4---12-11-9-7-9-5-7-4-5-2-4-0-------
9-10-9-8-7---7--7--7--7--4--2--4--5-------------------------------------
---------------------------------------------------------------------------



« Τελευταία τροποποίηση: Δεκέμβριος 18, 2013, 04:53:38 πμ από krana »
*MadmaX*
Junior forumist
*****
Αποσυνδεδεμένος Αποσυνδεδεμένος

Μηνύματα: 54


« Απάντηση #192 στις: Δεκέμβριος 02, 2009, 12:00:50 πμ »

ΣΤΟ ΦΑΛΗΡΟ ΠΟΥ ΠΛΕΝΕΣΑΙ (Μ. ΒΑΜΒΑΚΑΡΗΣ)

ΕΙΣΑΓΩΓΗ
--5-5-4-5- 7-8-9-10-8-8-7-5-4-3-2-1-2-3-5-2-----
-----------------------------------------------3-3
--------------------------------------------------

-5-5-4-5-7-8-9-10-8-8-7-5-4-3-2-5-3-2----------
-----------------------------------------5-3—3-3
-------------------------------------------------

ΤΡΑΓΟΥΔΙ
2-1-2-3-2-5-5-2-3-2-----3-2-----2------2-1-2-3-2-5-5-2-3-2-----2--------
----------------------5--------3-------------------------------5-----3—3-3
----------------------------------------------------------------------------



« Τελευταία τροποποίηση: Δεκέμβριος 18, 2013, 05:07:12 πμ από krana »
kosgia alaniaris
Newbie
*
Αποσυνδεδεμένος Αποσυνδεδεμένος

Μηνύματα: 16


« Απάντηση #193 στις: Δεκέμβριος 03, 2009, 08:15:48 μμ »

ΦΙΛΕ ΡΕΜΠΕΤΗ ΜΗΠΩΣ ΞΕΡΕΙΣ ΤΟ ΤΡΑΓΟΥΔΑΚΙ ΤΟΥ ΛΕΜΠΕΣΗ ΤΑ ΜΑΛΛΙΑ ΣΟΥ ΤΑ ΠΛΕΜΜΕΝΑ!!! ΤΙ ΤΡΑΓΟΥΔΙ ΘΕ ΜΟΥ
ΡΕΜΠΕΤΗΣ
Newbie
*
Αποσυνδεδεμένος Αποσυνδεδεμένος

Μηνύματα: 42


« Απάντηση #194 στις: Δεκέμβριος 03, 2009, 09:08:10 μμ »

Δυστυχως δεν το ξερω, θα το παλεψω ομως.
Αυτές τις μέρες θα σας δώσω το "Χρόνια στον Περαία" του Μάρκου,
και το "Θα ζήσω ελεύθερο πουλί" του Χρηστάκη
Σελίδες: 1 ... 11 12 [13] 14 15 ... 207   Πάνω
  Εκτύπωση  
 
Μεταπήδηση σε: