Αποστολέας Θέμα: Παρτιτούρες για Μπαγλαμά Τζουρά 3χορδο μπουζούκι...  (Αναγνώστηκε 2318217 φορές)
abdnm
Newbie
*
Αποσυνδεδεμένος Αποσυνδεδεμένος

Μηνύματα: 18


« Απάντηση #105 στις: Σεπτέμβριος 29, 2009, 12:08:04 μμ »

Τα έχω αυτά τα δύο....σκεφτόμουν να τα ανεβάσω, αλλά έχουν κάτι μικρολεπτομέρειες που θέλω να ξανακοιτάξω, οπότε σε καμιά βδομάδα λέω...
ΘΟΔΩΡΗΣ
Junior forumist
*****
Αποσυνδεδεμένος Αποσυνδεδεμένος

Μηνύματα: 75


« Απάντηση #106 στις: Σεπτέμβριος 29, 2009, 07:19:31 μμ »

Ωραίος abdnm!!!Τις μικρολεπτομέρειες τις καθορίζει και ο καθένας με το αυτί του αρκεί να έχει μία βάση του πώς βγαίνει το κομμάτι.!!Οπότε και μικρολεπτομέρειες να μην κοιτάξεις μια χα΄ρά θα μαστε..

όπως και να 'χει,αναμένουμε...!!
punkpagour
Newbie
*
Αποσυνδεδεμένος Αποσυνδεδεμένος

Μηνύματα: 12


« Απάντηση #107 στις: Σεπτέμβριος 30, 2009, 11:08:20 πμ »

Παιδιά μια μικρή συνεισφορά στην πληροφόρηση πάνω στα ρεμπέτικα.
Το τραγούδι θεέ μου μεγαλοδύναμε είναι νομίζω του παλιού ρεμπέτη και συνθέτη Γεράσιμου Κλουβάτου.
Παλιό ρεμπέτικο (μουρμούρικο), που τραγουδιέται ως τελευταίο τραγούδι, πριν κλείσει ο τεκές
kthulu
Administrator
Forum Addict
*****
Αποσυνδεδεμένος Αποσυνδεδεμένος

Μηνύματα: 686



« Απάντηση #108 στις: Σεπτέμβριος 30, 2009, 10:50:06 μμ »

συγχαρητήρια! αν μπορεί κανεις ας βάλει το Νίκος ο τρελακιας και το Στου λινάρδου την ταβέρνα!

love is the basis of our revolution
staurakas
Newbie
*
Αποσυνδεδεμένος Αποσυνδεδεμένος

Μηνύματα: 24


« Απάντηση #109 στις: Οκτώβριος 01, 2009, 12:00:00 μμ »

Oriste paidia mia vasi  gia to

Filakes tou oropou

I kathe grammi piso ap’ton arithmo dixnei poso kairo krataei i nota
oi kokkines einai grigores
1 parenthesi 2° xordi
2 parentheseis 3° xordi


Dm
0-2-4-3-3-4-3-2-0--2--3---


0-2-4-3-3-4-3-2-0--2--3-4-3-2-3---


0-2-4-3-3-4-3-2-0--2--3---0---1---1-3-1-0--(0)-0-(0)-0---



Logia

Dm           F
    St’oropo..
0--7--8--10--7-8-7-(9--8--9--) 7--(9--8--7--8)--((10))-(8 )--((10)--(8 )---


Dm          F                                                 Dm
    pio kala…                      
0--7--8--10--7-8-7-(9--8--9--) 7--(9--8--7--) 0---(0)-0-(0)-0---


abdnm perimenome tis leptomeries ante kouragio !



« Τελευταία τροποποίηση: Ιανουάριος 19, 2014, 08:10:12 μμ από krana »
abdnm
Newbie
*
Αποσυνδεδεμένος Αποσυνδεδεμένος

Μηνύματα: 18


« Απάντηση #110 στις: Οκτώβριος 01, 2009, 04:50:18 μμ »

Ο Νίκος ο τρελάκιας

με κάποια επιφύλαξη παιδιά, γιατί οι πενιές του Δελιά δεν πιάνονται ακριβώς...

Εισαγωγή

2--2-4-5-9-7-5-4-5-5-2-4-0-4-4-5-9-7-
0---------------------------------------  
0---------------------------------------

-2--2-2-2-4-5-5-4-7-5-4-5-5-2-4-0-----0---0-
---------------------------------------0---0--
----------------------------------------------  

(Όλο το προηγούμενο επί 2)


Λόγια

Τον ξέρετε  μωρέ παιδιά…
-12-7-7-9-7--12-7-7-9-5-4-5-5-2-4-0-4-4-5-9-7-
---------------------------------------------------------
----------------------------------------------------------  

Παιδί τζιμάνι….

-7-12-7-7-9-7--12-7-7-9-5-4-5-5-2-4-0-0-0-0….
----------------------------------------------------------
-----------------------------------------------------------

(το προηγούμενο επίσης επί 2)

και πάλι από την αρχή



« Τελευταία τροποποίηση: Δεκέμβριος 16, 2013, 10:40:08 πμ από krana »
ΘΟΔΩΡΗΣ
Junior forumist
*****
Αποσυνδεδεμένος Αποσυνδεδεμένος

Μηνύματα: 75


« Απάντηση #111 στις: Οκτώβριος 02, 2009, 08:31:07 μμ »

abdnm ωραίος!!!Σταύρακα στις φυλακές του Ωρωπού έχεις βγάλει και συγχορδίες κιθάρας όπως έκανες και με τα άλλα μήπως??
staurakas
Newbie
*
Αποσυνδεδεμένος Αποσυνδεδεμένος

Μηνύματα: 24


« Απάντηση #112 στις: Οκτώβριος 03, 2009, 07:47:41 μμ »

Rantevou san perimeno

PAPAIOANNOU

Oi kokkines pio grigora
to ((3)) me ton antihira kai aste to na htipisi.

Eisagogi

Dm
((3))-0-3-2-0-((3))-0-3-2-0-((3))-3-2-0-7-12-12-            }
                                                                                         }
 Dm                                                                                   }      2x
((3))-0-3-2-0-((3))-0-3-2-0-((3))-0-2-(4)-(5)-(5)-(5)-      }


Logia


Dm
Rantevou…
11-8-7-6-(8 )-7-6-(8 )-(7)-(5)-(7)-(8 )-6-7-      }
Kai m’ar…
 Dm                                                              }        2x
11-8-7-6-(8 )-7-6-(8 )-(7)-(5)-(0)-(5)-(0)-(5)-  }



« Τελευταία τροποποίηση: Δεκέμβριος 16, 2013, 10:44:24 πμ από krana »
staurakas
Newbie
*
Αποσυνδεδεμένος Αποσυνδεδεμένος

Μηνύματα: 24


« Απάντηση #113 στις: Οκτώβριος 03, 2009, 07:54:46 μμ »

Ela thodori evala ta akompaniamenta sto "filakes tou oropou"
dokimasto etsi .
Bravo paides kali doulia ginetai.
ΘΟΔΩΡΗΣ
Junior forumist
*****
Αποσυνδεδεμένος Αποσυνδεδεμένος

Μηνύματα: 75


« Απάντηση #114 στις: Οκτώβριος 06, 2009, 04:19:11 πμ »

Ωραίος ρε φίλε σταύρακα!!!Δε μου λες,σε προηγούμενη σελίδα έχει βγάλει ο abdnm καλά τον 'Πινόκλη' με βάση την εκτέλεση του Θανάση....έχεις ιδέα τι παίζει η κιθάρα από πίσω...το παλέυω με ένα φίλο αλλά δεν είμαστε σίγουροι....έχω εντύπωση ότι αρχίζει απο Em με βάση αυτό που ανέβασε ο abdnm αλλά και πάλι δεν είμαι σίγουρος..αν βρεις τις συγχορδίες με βάση τον πινόκλη που ανέβηκε εδώ γράφτες αν μπορείς γιατί με δυσκολεύει λιγάκι.
nikkortis
Junior forumist
*****
Αποσυνδεδεμένος Αποσυνδεδεμένος

Μηνύματα: 192



« Απάντηση #115 στις: Οκτώβριος 06, 2009, 04:08:49 μμ »

ερχεται απο εμενα το Πρωτο Φθινοπωρο και το Μπιρ Αλλάχ..... ελπιζω μεχρι το βραδυ να τα εχω βαλει αλλιως αυριο....
« Τελευταία τροποποίηση: Οκτώβριος 06, 2009, 04:11:15 μμ από nikkortis »

Κανένας δεν μας έβλεπε όσο είμασταν ακάλυπτοι,τώρα όλοι ασχολούνται
πώς γίνεται στον ένα παλαβιάρη, εξήγησέ μου, κουτόχορτο χιλιάδες να βοσκάν.
punkpagour
Newbie
*
Αποσυνδεδεμένος Αποσυνδεδεμένος

Μηνύματα: 12


« Απάντηση #116 στις: Οκτώβριος 07, 2009, 01:42:52 μμ »

Παιδιά λέτε να μπορούμε να βγάλουμε και τα μπλέ παραθυρά σου από Μάρκο,νομίζω ότι είναι παιγμένο από Λα.
staurakas
Newbie
*
Αποσυνδεδεμένος Αποσυνδεδεμένος

Μηνύματα: 24


« Απάντηση #117 στις: Οκτώβριος 07, 2009, 05:55:11 μμ »

Ta mple parathyra t'oho se partitoura. Tha to kitaxo (gia tous daktilismous) kai tha to katagrapso se tabs... se ligo...
Malista arhizei apo La alla i geniki tonikotita tou einai Re min . Ligi ypomoni .
Thodori koitazo gia tis synhordies tou pinokli kai se enimerono...
ΘΟΔΩΡΗΣ
Junior forumist
*****
Αποσυνδεδεμένος Αποσυνδεδεμένος

Μηνύματα: 75


« Απάντηση #118 στις: Οκτώβριος 08, 2009, 04:04:02 πμ »

Σταύρακα ευχαριστούμε ρε φίλε κάνεις πολύ καλή δουλειά...!!
nikkortis
Junior forumist
*****
Αποσυνδεδεμένος Αποσυνδεδεμένος

Μηνύματα: 192



« Απάντηση #119 στις: Οκτώβριος 08, 2009, 12:07:15 μμ »

Πρωτο Φθινοπωρο Κορακακης

Εισαγωγη:
---3-3-3-3-3--2-5-5-3-2-0----3-3-3-3-3-2-5-7-5-3-2-0-0-2-0
-0---------------------------0-------------------------4-------
------------------------------------------------------------------

---5-5-5-7-8-5-7-8-5-12-12-12-7-7-3-3-0-0--------------------------12
-5---------------------------------------------12-11-12-15-14-13-12-
-------------------------------------------------------------------------

Λογια:
-8-7-6-7-3-0-----0-2-3-2-(2-3-4-5)--5-3-2-3-2-0--------0-(2-3-4-5)-5-8-7-8-5-2-2-3-4-5-3--
--------------0-4----------------------------------0-1-4--------------------------------------
-----------------------------------------------------------------------------------------------

-3-2-0-2-0----------0-(2-3-4-5)-5-8-7-8-5-2-2-3-4-5-3----3-2-0-2-0----------0
------------4-0-1-4---------------------------------------------------4-0-1-4--

οι παρενθεσεις ειναι γεφυρες (γεμισματα)



« Τελευταία τροποποίηση: Δεκέμβριος 17, 2013, 03:33:38 πμ από krana »

Κανένας δεν μας έβλεπε όσο είμασταν ακάλυπτοι,τώρα όλοι ασχολούνται
πώς γίνεται στον ένα παλαβιάρη, εξήγησέ μου, κουτόχορτο χιλιάδες να βοσκάν.
Σελίδες: 1 ... 6 7 [8] 9 10 ... 207   Πάνω
  Εκτύπωση  
 
Μεταπήδηση σε: