Αποστολέας Θέμα: Παρτιτούρες για Μπαγλαμά Τζουρά 3χορδο μπουζούκι...  (Αναγνώστηκε 2318200 φορές)
ΘΟΔΩΡΗΣ
Junior forumist
*****
Αποσυνδεδεμένος Αποσυνδεδεμένος

Μηνύματα: 75


« Απάντηση #60 στις: Σεπτέμβριος 20, 2009, 03:05:13 πμ »

Wraios Stavraka!!!Polu kala vgainei...Exeis mipws kai to 'magiko melaxroino' tou Markou??
ΘΟΔΩΡΗΣ
Junior forumist
*****
Αποσυνδεδεμένος Αποσυνδεδεμένος

Μηνύματα: 75


« Απάντηση #61 στις: Σεπτέμβριος 20, 2009, 03:08:18 πμ »

Kai to 'alana peiraiwtissa' tou Markou na uparxei ki auto gia opoion thelei.!

1o meros (x2):
12 11 12 14 12 11 (13 12 11) 11 (13 12 12 11 10 9 9) 11 12 14 12 11 (13 12)
12 11 12 14 12 11 (13 12 11) 11 (13 12 12 11 10 9 9 0 5)

Logia (x2):
0 4 5 7 8 7 7 6 5 4 12 11 (13 12)
0 4 5 7 8 7 7 6 5 4


(mpravo re magkes etsi exei parei fwtia to topic!)



« Τελευταία τροποποίηση: Δεκέμβριος 16, 2013, 09:49:39 πμ από krana »
nikkortis
Junior forumist
*****
Αποσυνδεδεμένος Αποσυνδεδεμένος

Μηνύματα: 192



« Απάντηση #62 στις: Σεπτέμβριος 20, 2009, 10:32:19 πμ »

ωραιοι ρε παιδες... ΘΟΔΩΡΗ θα βαλεις και την Παλια πληγη απο θαναση που ειπες?

Κανένας δεν μας έβλεπε όσο είμασταν ακάλυπτοι,τώρα όλοι ασχολούνται
πώς γίνεται στον ένα παλαβιάρη, εξήγησέ μου, κουτόχορτο χιλιάδες να βοσκάν.
staurakas
Newbie
*
Αποσυνδεδεμένος Αποσυνδεδεμένος

Μηνύματα: 24


« Απάντηση #63 στις: Σεπτέμβριος 20, 2009, 12:10:18 μμ »

Gia xara se olous
Dustuxos den t’oxo to magkiko melaxrino alla tha kitakso
Oriste prosorina « to koroido »
T’obala gia mpouzouki, sto mpaglama to paizo allios, pio pano sto maniki.opios theli gia mpaglama as mou to pi kai to bazo                                          

Koroido

Markos Vamvakaris

Eisagogi

12-10-12-14-15-12-14-10-12-8-7-8-9-10-12-     2x

7-7-8-9-12-10-8-7-5-5-3-3-2-3-(3)-3-3-3-

3-2-3-5-6-8-6-5-3-3-2-1-0-0-(3)-(1)-(3)-0-

3-2-3-5-6-8-6-6-5-5-3-32-3-(3)-3-3-3-

3-2-3-5-6-8-6-5-3-3-2-1-0-0-(3)-(1)-(3)-0-

Logia

10-12-14-15-12-14-10-12-8-7-8-9-10-12-   2x

7-8-9-12-10-8-7-5-5-3-3-2-3-3-3-3-

2-3-5-8-6-5-3-3-2-1-0-0-(3)-(1)-(3)-0

2-3-5-6-5-6-5-5-3-3-2-3-(3)-3-3-

2-3-5-8-6-5-3-3-2-1-0-0-(3)-(1)-(3)-0

3-3-3-3-2-3-5-6-9-6-5-3-3-2-1-0-0-(3)-(1)-(3)-0-7-3
                                                                                  5
                                                                                  7



« Τελευταία τροποποίηση: Δεκέμβριος 16, 2013, 10:08:34 πμ από krana »
staurakas
Newbie
*
Αποσυνδεδεμένος Αποσυνδεδεμένος

Μηνύματα: 24


« Απάντηση #64 στις: Σεπτέμβριος 20, 2009, 12:17:51 μμ »

to teleftaio akordo einai Re m fisika paizontai oi 3 notes synxronos ara
3    1° xordi
5    2°
7    3°
nikkortis
Junior forumist
*****
Αποσυνδεδεμένος Αποσυνδεδεμένος

Μηνύματα: 192



« Απάντηση #65 στις: Σεπτέμβριος 20, 2009, 01:06:41 μμ »

staurakas  ωραιος ρε φιλε... εαν εχεις και αλλα και μπορεις ανεβασε τα. οσο για τον μπαγλαμα αμα σου ειναι ευκολο ανεβασε το να το παιξουμε και στον μπαγλαμα....

οι παρενθεσεις ειναι χτυπηματα στην δευτερη χορδη ε? ευχαρηστω!

Κανένας δεν μας έβλεπε όσο είμασταν ακάλυπτοι,τώρα όλοι ασχολούνται
πώς γίνεται στον ένα παλαβιάρη, εξήγησέ μου, κουτόχορτο χιλιάδες να βοσκάν.
abdnm
Newbie
*
Αποσυνδεδεμένος Αποσυνδεδεμένος

Μηνύματα: 18


« Απάντηση #66 στις: Σεπτέμβριος 20, 2009, 01:07:07 μμ »

Κάηκε ένα σχολείο    
(Κώστας Μπέζος)

παλιό μικρασιάτικο, μετά την καταστροφή της Σμύρνης μπήκαν και άλλα λόγια

-5-7-7-7--7-5-5-3-5-1-1--0--------------------------------
-------------------------3----------------------------------  
------------------------------------------------------------ ( x2 )

-7-8-10-7-10-8-5-7-3-5-3-3-1--0-1-3-1-5-3-3-1--0-------
------------------------------3---- -------------3--------
-----------------------------------------------------------  

-3-3-1--0-1-3-1-5-3-3-1--0-------------------------------
-------3-----------------3----------------------------------
------------------------------------------------------------ ( x2 )  

--0-0---0----0-0---0----0--------------------------------
-0---------0-------------0--------------------------------
 -----0----------0-------0--------------------------------

(και μετά πάλι απ την αρχή)

ακούστε
« Τελευταία τροποποίηση: Δεκέμβριος 16, 2013, 09:58:11 πμ από krana »
abdnm
Newbie
*
Αποσυνδεδεμένος Αποσυνδεδεμένος

Μηνύματα: 18


« Απάντηση #67 στις: Σεπτέμβριος 20, 2009, 03:00:00 μμ »

Άλλο ένα

Οι δύο σερέτες


Εισαγωγή

-(4-5)-5-3-(5-6)-6-3-5-0-12-0-12-0-12---------
---0--------------------------------------------  
---0--------------------------------------------

-(4-5)-5-8-8-8-3-5----5---5---5---------------
----------------------5---5---5----------------
-----------------------------------------------  

(Όλο το προηγούμενο επί 2)

Λόγια

-10-10-8-12-8-10--------------8-10-12-----------
-------------------11-8-10-11--------------------
---------------------------------------------------  

-10-10-10-8-12-8-10-----------------------------
----------------------11-8-10--------------------
--------------------------------------------------

(το προηγούμενο επίσης επί 2)

-15-15-14-15-12-8-10-----------------8-10-12-----
-----------------------11-11-8-10-11---------------
----------------------------------------------------

-15-15-14-15-12-8-10------------------------------
----------------------11-11-8-10---10-10-10…-----
----------------------------------------------------

(κι αυτό επί 2)

Ακούστε



φυσικά χωρίς το ταξίμι το γράφω  



« Τελευταία τροποποίηση: Ιανουάριος 19, 2014, 08:36:01 μμ από krana »
staurakas
Newbie
*
Αποσυνδεδεμένος Αποσυνδεδεμένος

Μηνύματα: 24


« Απάντηση #68 στις: Σεπτέμβριος 20, 2009, 04:24:00 μμ »

KOROIDO
M. VAMVAKARIS
Etsi to paizo ego sto mpaglama den ehei megali diafora mono merika kommatia ta paizo mia oktava pio kato. 1 parenthesi =2° xordi
                           2  parenthesis = 3° xordi
Lipon arhi me xtypima tis 3 xordes adies
Sugnomi gia ti grafi ! Staurakas ek Belgiou.

Eisagogi

0-(3)-0-2-3-0-2-(3)-0-(1)-(0)-(1)-(2)-(3)-0-   2x
(0)
((0))

7-7-8-9-12-10-8-7-5-5-3-3-2-3-(3)-3-3-3-

3-2-3-5-6-8-6-5-3-3-2-1-0-0-(3)-(1)-(3)-0-

3-2-3-5-6-8-6-6-5-5-3-32-3-(3)-3-3-3-

3-2-3-5-6-8-6-5-3-3-2-1-0-0-(3)-(1)-(3)-0-


Logia

(2)-0-2-3-0-2-(3)-0-(1)-(0)-(1)-(2)-(3)-0-  2x


7-8-9-12-10-8-7-5-5-3-3-2-3-3-3-3-

2-3-5-8-6-5-3-3-2-1-0-0-(3)-(1)-(3)-0

2-3-5-6-5-6-5-5-3-3-2-3-(3)-3-3-

2-3-5-8-6-5-3-3-2-1-0-0-(3)-(1)-(3)-0

3-3-3-3-2-3-5-6-9-6-5-3-3-2-1-0-0-(3)-(1)-(3)-0-7-3
                                                                         5
                                                                         7


Mpravo paidia polu endiaferon to topic.
Eho polla rempetika tha prospathiso n'anevaso kamposa.



« Τελευταία τροποποίηση: Δεκέμβριος 16, 2013, 10:11:06 πμ από krana »
ΘΟΔΩΡΗΣ
Junior forumist
*****
Αποσυνδεδεμένος Αποσυνδεδεμένος

Μηνύματα: 75


« Απάντηση #69 στις: Σεπτέμβριος 20, 2009, 06:19:26 μμ »

Αααα καλά πάμε εμείς!!!   

το 'κάηκε ένα σχολειό' είναι κορυφαίο μπράβο ρε φίλε..

nikkortis ναι το 'παλιά πληγή' του Θανάση το τελειώνω τώρα και θα το ανεβάσω σήμερα-αύριο-μεθαύριο..
nikkortis
Junior forumist
*****
Αποσυνδεδεμένος Αποσυνδεδεμένος

Μηνύματα: 192



« Απάντηση #70 στις: Σεπτέμβριος 20, 2009, 06:24:12 μμ »

μπραβο ρε παιδια... α ρε ΘΑΝΑΣΗ με φτιαχνεις γιατι ο συνονοματος σου τα σπαει..... μπραβο παιδια ανεβαστε εχουμε παρει φωτια.....

Κανένας δεν μας έβλεπε όσο είμασταν ακάλυπτοι,τώρα όλοι ασχολούνται
πώς γίνεται στον ένα παλαβιάρη, εξήγησέ μου, κουτόχορτο χιλιάδες να βοσκάν.
staurakas
Newbie
*
Αποσυνδεδεμένος Αποσυνδεδεμένος

Μηνύματα: 24


« Απάντηση #71 στις: Σεπτέμβριος 20, 2009, 07:57:05 μμ »

Gia sas paidia
Oriste to teleuteo. Tragoudara !
Ego to paizo etsi kurios me tis 2 xordes etsi de kaneis megales kinisis me t’aristero .
An kanis ehei kamia partitoura  tin vazo se tabs (diabazo notes)


PSILA TA PARATHYRIA SOU
Markos VAMVAKARIS


Eisagogi
7-7-(10)-9-9-(10)-7-7-(10)-9-9-(10)-7-7-9-(10)-(8)-(7)-9-9-9-9-9-9-9-9-9

7-7-(10)-9-9-(10)-7-7-(10)-9-9-(10)-7-7-9-(10)-(8)-(7-7-7-7-7-7-7-7-7-)

(10)-(10)-(10)-(8)-(7)-7-7-7-(10)-(8)-(10)-7-(10)-(8)-(10)-(8)-(7)-(5)-(7)-9-9-9-9-9-9-9-9-9

(10)-(10)-(10)-(8)-(7)-7-7-7-(10)-(8)-(10)-7-(10)-(8)-(10)-(8)-(7)-(5)-(7-7-7-7-7-7-7-7-7-7)

Logia

9-7-(10)-(8)-(7)-7-7-(10)-(7)-(8)-(5)-(7)-(5)-(7)-(8)-(10)-(7)-(8)-(5)-(7)-(7)-(7)  }2x

  
(7)-(10)-7-7-7-(10)-7-9-10-7-9-(10)-7-(10)-7-9-10-7-9-(10)-7-(7)-(7) }
                                                                                                                } 2x
(7)-10-7-9-10-7-9-(10)-9-(10)-(8)-(7)-(7)-(5)-(7)-(8)-5-(7)-(8)-(5)-(7) }



« Τελευταία τροποποίηση: Δεκέμβριος 16, 2013, 10:14:16 πμ από krana »
staurakas
Newbie
*
Αποσυνδεδεμένος Αποσυνδεδεμένος

Μηνύματα: 24


« Απάντηση #72 στις: Σεπτέμβριος 20, 2009, 07:59:53 μμ »

signomi de ksero giati m'ouvale tis fatsoules !!!
i kathe fatsoula einai 8
ok ?
nikkortis
Junior forumist
*****
Αποσυνδεδεμένος Αποσυνδεδεμένος

Μηνύματα: 192



« Απάντηση #73 στις: Σεπτέμβριος 20, 2009, 08:35:06 μμ »

μπραβο ρε staurakas  ανεβαζε πραμα να γουσταρουμε.... γεια χαρα στο Βελγιο

ΥΣ σου εβγαλε της φατσες επειδη εγραφες παρενθεση 8 και μετα κλεισιμο της παρενθεσης....δεν πειραζει.... εισαι ωραιος!!!!
« Τελευταία τροποποίηση: Σεπτέμβριος 20, 2009, 08:47:01 μμ από nikkortis »

Κανένας δεν μας έβλεπε όσο είμασταν ακάλυπτοι,τώρα όλοι ασχολούνται
πώς γίνεται στον ένα παλαβιάρη, εξήγησέ μου, κουτόχορτο χιλιάδες να βοσκάν.
staurakas
Newbie
*
Αποσυνδεδεμένος Αποσυνδεδεμένος

Μηνύματα: 24


« Απάντηση #74 στις: Σεπτέμβριος 21, 2009, 12:05:30 μμ »

gia sas paides
ti paksimadokleftra den tin ida.
Min anisihite. th'ane etumi se ligo !!
Bravo sas. Synehisete !!
Σελίδες: 1 ... 3 4 [5] 6 7 ... 207   Πάνω
  Εκτύπωση  
 
Μεταπήδηση σε: