Αποστολέας Θέμα: Παρτιτούρες για Μπαγλαμά Τζουρά 3χορδο μπουζούκι...  (Αναγνώστηκε 1898811 φορές)
atopos
Newbie
*
Αποσυνδεδεμένος Αποσυνδεδεμένος

Φύλο: Άντρας
Μηνύματα: 15


arm your destinys


« στις: Δεκέμβριος 11, 2007, 03:22:29 μμ »

 Αποφάσισα να γράψω εδώ κάποια τραγούδια για αυτά τα όργανα, με κάθε επιφύλαξη καθώς τα έχω βγάλει ή μόνος μου, ή μου τα έχουν δείξει φίλοι. Όποιος ξέρει κάποιο άλλο, ας το βάλει, κι όποιος έχει κάποιο απ' τα τραγούδια αυτά ας το ανεβάσει.

Καλή διασκέδαση
« Τελευταία τροποποίηση: Φεβρουάριος 02, 2014, 07:00:50 μμ από krana »

Καμία επιβίωση της Τέχνης
Αυτοδιεύθυνση της Καθημερινής Ζωής
atopos
Newbie
*
Αποσυνδεδεμένος Αποσυνδεδεμένος

Φύλο: Άντρας
Μηνύματα: 15


arm your destinys


« Απάντηση #1 στις: Δεκέμβριος 11, 2007, 03:59:18 μμ »

Πεχλιβάνης - Θ. Παπακωσταντίνου

Εισαγωγή

7-7-5-3-3-2-0-0-------------------0---2---0-0-2-3-7-5-3-2-3-5-7-7-5-3-3-2-0-0---------------------2-0-0-2-0-
-----------------3-2-0------0-2-3----3---3--------------------------------------3-2-0-----0-2-3-5-3--3---3-3-3
------------------------5-5-------------------------------------------------------------5-5---------------------

Λόγια

Μέρος πρώτο (Μια νύχτα θα ρθει από μακριά..)

|2|-2-2-2-3-2-3-2-0-|0|-0-8-7-8-5-7-3-0-|2|-2-2-2-3-2-3-2-0-|0|-0---2--0---|2|-2-2-2-3-2-3-2-0-|0|-8-7-8-5-7-3-0-|2|-2-2-2-3-2-3-2-0-|0|-0---2--0
|3|------------------|0|------------------|3|-------------------|0|---3--3--3--|3|------------------|0|----------------|3|------------------|0|---3--3--3
|5|------------------|0|------------------|5|-------------------|0|------------|5|------------------|0|----------------|5|------------------|0|----------

Μέρος δεύτερο (θα χει θυμάρι στα μαλλιά..)

|7|-7-7-7-8-7-5-3-|8|-8-8-8-10-8-10-8-|7|-5-3-5-|7|-0
|3|----------------|5|------------------|3|--------|3|--
|3|----------------|5|------------------|3|--------|3|--

και μετά πάλι το πρώτο μέρος, μετά εισαγωγή, και μετά το ίδιο, με τα υπόλοιπα λόγια, ελπίζω να βοήθησα...
εντός ολίγον λεπτόν (ελπίζω) έρχεται και το 2ο κομμάτι, που θα είναι και πιο εύκολο
« Τελευταία τροποποίηση: Δεκέμβριος 29, 2013, 07:02:06 μμ από krana »

Καμία επιβίωση της Τέχνης
Αυτοδιεύθυνση της Καθημερινής Ζωής
atopos
Newbie
*
Αποσυνδεδεμένος Αποσυνδεδεμένος

Φύλο: Άντρας
Μηνύματα: 15


arm your destinys


« Απάντηση #2 στις: Δεκέμβριος 11, 2007, 04:34:18 μμ »

Φραγκοσυριανή - Μ. Βαμβακάρης

Εισαγωγή

-12-12-12-12-13-12-7-7-7-8-7-5-5-5-7-5-3-3-3-5-3-2-2-2-3-2-0--0-2-3-2-5-4-3-2-2-3-4-5-7-5-3-3-3-5-3-2-2-2-3-2-0-0-0-2-0------2-3-5-3-2-3-0---|0|
-----------------------------------------------------------------4---------------------------------------------------------------0-4----------------0-|0|
-------------------------------------------------------------------------------------------------------------------------------------------------------|0|

-------------------------
4-5-5-0-1-0-4-5-5-0-1-1
-------------------------

Λόγια

2-|3|-3-|3|-3-|3|-3-3-3-3-|3|-3-2-------|2|-5-4-3-|2|-2-3-|5|-5-8-7-5-7-5-|3|-2------2-3-|2|-5-4-3-|2|-2-3-|5|-5-8-7-5-7-5-|3|-2-------2-3-0--|0|
--|0|---|0|---|0|----------|0|-----5-4-5-|2|-------|2|-----|5|--------------|3|---5-4-5-----|2|-------|2|-----|5|--------------|3|---5-4-5-------0-|0|
--|0|---|0|---|0|----------|0|-----------|5|-------|5|------|5|--------------|3|-------------|5|-------|5|-----|5|--------------|3|-----------------|0|

όπου βάζω | σημένει πως όλες οι θέσεις που είναι στην ευθεία, πχ |2| παίζονται όλες με μια πενιά, είναι ακόρντα.
                                                                                        |2|
                                                                                        |5|

το επόμενο κομμάτι το βράδυ ή αύριο
και αν υπάρχει έστω ένας που να παίζει τρίχορδο, και ενδιαφέρεται για όσα γράφω, ας το πει, θα μου δώσει κουράγιο  
« Τελευταία τροποποίηση: Δεκέμβριος 16, 2013, 04:37:03 πμ από krana »

Καμία επιβίωση της Τέχνης
Αυτοδιεύθυνση της Καθημερινής Ζωής
kthulu
Administrator
Forum Addict
*****
Αποσυνδεδεμένος Αποσυνδεδεμένος

Μηνύματα: 686



« Απάντηση #3 στις: Δεκέμβριος 11, 2007, 10:04:33 μμ »

Δώσε πράμα στο λαό:) Παραγγελιες επιτρέπονται; Οτιδήποτε έχεις από παλιά ρεμπέτικα θα με ενδιέφερε:)

love is the basis of our revolution
atopos
Newbie
*
Αποσυνδεδεμένος Αποσυνδεδεμένος

Φύλο: Άντρας
Μηνύματα: 15


arm your destinys


« Απάντηση #4 στις: Δεκέμβριος 11, 2007, 10:50:35 μμ »

σε 10' ξεκινάω να γράψω τα εξής τραγούδια (δεν έχω και μεγάλο ρεπερτόριο)
-τα ματόκλαδα σου λάμπουν
-παξιμαδοκλέφτρα
-το πιτσιρίκι
-καίγομαι καίγομαι
-διάφανος
-όταν χαράζει
-ήρωες (ναι το αντάρτικο)
-my number one (ναι της Παπαρίζου)
-όσοι έχουνε πολλά λεφτά

Επίσης να σημιώσω πως ψάχνω τπτ από τσιτσάνη, συγκεκριμένα το "νύχτωσε χωρίς φεγγάρι" και ότι άλλο παίζει, όποιος έχει γνώση ας μου δώσει λινκ ή να μου στείλει στο μσν (ναι είχα και στο χωριό μου).

Επίσης παραγκελιές επιτρέπονται κθούλου, αλλά να σημπεριλαμβάνονται και σε μπ3 τα τραγούδια, επίσης ψιλοδύσκολα τα βγάζω, θα προσπαθήσω πάντως

Καμία επιβίωση της Τέχνης
Αυτοδιεύθυνση της Καθημερινής Ζωής
atopos
Newbie
*
Αποσυνδεδεμένος Αποσυνδεδεμένος

Φύλο: Άντρας
Μηνύματα: 15


arm your destinys


« Απάντηση #5 στις: Δεκέμβριος 12, 2007, 06:12:24 μμ »

Όταν χαράζει - Θ. Παπακωσταντίνου

Λόγια

7-7-7-7-9-2-5-5-5-5-3-2-0-0-5-7-5-3-7-2
------------------------------------------
------------------------------------------

7-7-7-7--9-2-5-5-5-5-3-2-0-0-5-7-5-3-2-0----------
-------------------------------------------3-2-3-2-0
----------------------------------------------------

Ριφ

Πρώτος Τρόπος

7-7-9-10-7-12-7-10-7-5-2-7-7-9-10-  7-7-9-10-7-12-7-10-3-3-7-10-9-10-7
-------------------------------------  -------------------------------------
-------------------------------------  -------------------------------------

Δεύτερος Τρόπος

αυτός ο τρόπος είναι κυρίως για αρχάριους στο μπαγλαμά, που δεν μπορούν να παίξουν σε μεγάλη ταχύτητα στα πιο ψιλά τάστα. Δεν αλλάζει κάτι, απλώς παίζεται μια 8αβα χαμηλότερα απ' το κανονικό.

----------0------------------  -----------0-------------------
0-0-2-3-0-0-3-0----0-0-2-3-  -0-0-2-3-0--0-3-0-----0-3-2-0
-----------------5-2--------- -------------------5-5--------

εννοείτε πως τα κομμάτια μπορείτε να τα παίζεται με δικά σας ανθίσματα γεμίσματα ή να παίζεται ακόρντα σε κάποιες στιγμές, εγώ τα γράφω απλά για να είναι πιο κατανοϊτά, και επίσης επειδή το ίδιο κομμάτι έχει διαφορετική εκτέλεση ανάλογα με τον ερμηνευτή. Σαν να λέμε εγώ γράφω την βάση του τραγουδιού, την γενική σκέψη, δεν πα να πει οτι σε μια ορχήστρα ένας μπουζουκτζής θα έπαιζε απλώς και μόνο ότι γράφω.
Ελπίζω να έγινα κατανοϊτός.
« Τελευταία τροποποίηση: Δεκέμβριος 16, 2013, 04:38:25 πμ από krana »

Καμία επιβίωση της Τέχνης
Αυτοδιεύθυνση της Καθημερινής Ζωής
atopos
Newbie
*
Αποσυνδεδεμένος Αποσυνδεδεμένος

Φύλο: Άντρας
Μηνύματα: 15


arm your destinys


« Απάντηση #6 στις: Δεκέμβριος 15, 2007, 12:10:59 μμ »

Αρχίζω να πιστεύω πως το θέμα δεν ενδιαφέρει κανέναν
αλλά οπλίζωμαι με υπομονή και συνεχίζω

Και ακολουθεί μια απιστευτική τραγουδάρα...

Πριν το χάραμα

Εισαγωγή

0-0-2-3-2-0 3-3-5-7-5-3 12-10-9-8---------7
------------------------------------10-8-10
---------------------------------------------

0-0-2-3-2-0 3-3-5-7-5-3 2-3-5-7-5-3-2-3-0 7-8-7-5-3-2-0
----------------------------------------------------------
----------------------------------------------------------

Λόγια

πριν το χάρα-     -μα μονάχος               εξεκίνησα                                              και στο πρώτο      
0-0-3-2-0         7-5-3-5-3-2-0 7-8-10 12-10-12-8-7 7-8-7--------7-8-7 -----7-8  8-7----7-------  
----------         --------------------   ------------  ------10-8-10-----  8-10      ----10---10-8-7  
----------         --------------------  ------------   -------------------  -------  ----------------

μας το στέκι                      την αυγούλα αντίκρισα                                            και στο πρώτο
7---------------   --------    ----------------7     -----------7----------7-8      8-7---7------  
--10-8-10-8-7-5   8-7-5-4    4-5-7-8-10-8-7--     7-8-7-8-10--8-10-8-10---      ----10-10-8-7  
----------------   --------    -----------------     -------------------------      ---------------

μας το στέκι                     την αυγούλα αντίκρισα
7---------------   --------   ------------------      7-8-7---7------------
--10-8-10-8-7-5   8-7-5-4    4-5-7-8-10-8-7-5       -----10--8-7-5------
----------------  ---------   ------------------      ---------------------



« Τελευταία τροποποίηση: Δεκέμβριος 16, 2013, 04:55:35 πμ από krana »

Καμία επιβίωση της Τέχνης
Αυτοδιεύθυνση της Καθημερινής Ζωής
kthulu
Administrator
Forum Addict
*****
Αποσυνδεδεμένος Αποσυνδεδεμένος

Μηνύματα: 686



« Απάντηση #7 στις: Δεκέμβριος 15, 2007, 06:49:38 μμ »

Το παρακάτω τραγούδι είναι του Ανέστη Δελία, και είχε κυκλοφορίσει σε κιθάρα από τον Γιώργο Κατσαρό (αν δεν κάνω λάθος). Τα tabs είναι για κιθάρα (ελπίζω να μην σου χαλάω το topic, είναι ρεμπέτικο).

στοίχοι:
Η τύχη μου το έριξε        |να κλέψω ένα σακάκι
------------------------------------------------
----------------1---1-------------------1---1---
----------------0---0-------------------0---0---
--------2-0-----2---2-----------2-0-----2---2---
--0-2-3-----2-3-------3---0-2-3-----2-3-------3-
3-----------------3-----3-----------------3-----

το τράβαγα για πούλημα |μες του καραϊσκάκη
------------------------------------------------
----------------1---1-------------------1---1---
2-0-------------2---2---2-0-------------2---2---
----3-2-0-------2---2-------3-2-0-------2---2---
----------3-2-0---0---------------3-2-0---0-----
------------------------------------------------

ρεφρέν:
------------------------------------
------------------------------------
------------------------------------
2-0-----------0-0-2-0---------------
----3-2-0-2-----------3-2-0-2---0-0-
------------3-----------------3-----



« Τελευταία τροποποίηση: Δεκέμβριος 16, 2013, 05:16:26 πμ από krana »

love is the basis of our revolution
atopos
Newbie
*
Αποσυνδεδεμένος Αποσυνδεδεμένος

Φύλο: Άντρας
Μηνύματα: 15


arm your destinys


« Απάντηση #8 στις: Δεκέμβριος 17, 2007, 08:31:41 μμ »

Το πιτσιρίκι

Εισαγωγή

-|0|-12-10-8-7- -10-8-7-5- -8-7-5-3-3-3- -|3|-8-7-5-3- -7-5-3-2- -5-3-2-|0|-
-|0|------------ ----------  -------------  -|0|---------  ---------  -------|0|-
---------------- ----------  -------------  -------------  ---------  -----------

Λόγια

 0--0-2-3-3  3-5-3-2-0-0  \
 --3-------   -----------    |<-- παίζεται 2 φορές, με διαφορετικούς στίχους
 ----------   -----------   /

 7-8-7-5-3-3 7-8-7-5-3-3 7-8-7-5-3-3 2-3-2--0-0
 ------------ -----------  ------------ ------3---
 ------------ ------------ ------------ ----------

κθούλου, άμα έχεις κανα άλλο ρεμπέτικο, πιο γνωστό στην κιθάρα, έτσι με τα γυρίσματα κτλ, αν μπορείς βάλτο, με ενδιαφέρει, το συγκεκριμένο δυστηχώς δεν το ξέρω



« Τελευταία τροποποίηση: Ιανουάριος 25, 2014, 01:16:11 μμ από krana »

Καμία επιβίωση της Τέχνης
Αυτοδιεύθυνση της Καθημερινής Ζωής
atopos
Newbie
*
Αποσυνδεδεμένος Αποσυνδεδεμένος

Φύλο: Άντρας
Μηνύματα: 15


arm your destinys


« Απάντηση #9 στις: Ιανουάριος 11, 2008, 05:43:39 πμ »

λοιπόν το όργανο είναι για επισκευή, αύριο μεθαύριο θα ναι έτοιμο... και λέω να περάσω καμια ταμπλατούρα μιας κι έχει ξεχάσει ένας φίλος το μπουζούκι του σπίτι μου

ΒΑΜΒΑΚΑΡΗΣ 4 LIFE - Ο ΜΑΡΚΟΣ ΥΠΟΥΡΓΟΣ

εισαγωγή

|7|-8-10-12-10-8-10- 10-7-8-10-8-6-7
|8|------------------  ----------------
|10|-----------------  ----------------

λόγια

7-12-7-8-5-7-3-5-2-3-0-2---0-2-3-5-7
---------------------------4----------
--------------------------------------

7-12-7-8-5-7-3-5-2-3-0-2---0----0---0
---------------------------4---0----0--
----------------------------------------

ναι γενικά το τραγούδι είναι απλό αλλά πολύ ωραίο, για περισσότερη βοήθεια κοιτάξτε εδώ, οπού το ερμηνεύη ο γιός του Μάρκου, ο στέλιος Βαμβακάρης...

« Τελευταία τροποποίηση: Φεβρουάριος 02, 2014, 08:06:48 μμ από krana »

Καμία επιβίωση της Τέχνης
Αυτοδιεύθυνση της Καθημερινής Ζωής
havana
Newbie
*
Αποσυνδεδεμένος Αποσυνδεδεμένος

Μηνύματα: 1


« Απάντηση #10 στις: Δεκέμβριος 28, 2008, 12:36:49 πμ »

καλησπερα παιδια αν θελετε αυτο ειναι το μινορε του τεκε παιζεται σε ρυθμο 9/4 και δεν εχει λογια. (Τα χτυπηματα που ειναι εντος παρενθέσεως παιζονtai με ένα χτυπημα αντι για δυο -glissando-). καλο παιξιμο!

|0|--6-7-7---7---7-8-7-6-----6-7-8-7-6-----------8-7-8-7-6-7
|0|-----------------------8-------------8---7---5-------------
|0|------------------------------------------------------------


|0|--6-7-7---7---7-8-7-6------6-7-8-7-6---------0-------0-------0
|0|-----------------------8---------------8---7--------0----0----
|0|----------------------------------------------------------------


---------------------------(6-7)------------------------------8-7-8-7-5-7
--(7-8)---8-10-8---7---5------------(7-8)---8-10-8---7---5--------------
------------------------------------------------------------------------


---------------------------(6-7)-------------------------0-------0-----
--(7-8)---8-10-8---7---5-----------(7-8)---8-11-8---7----------0-------0
----------------------------------------------------------------------


---------------------------------------------------------------------------
--4-5-5-5-5-5-5-5-4-5-5-5-5-5-5-5-4---4---4-5-7---4---5---7-8-8-8-8-8-8
---------------------------------------------------------------------------


-------------------------------------------------------------0------0--------
-7-8-8-8-8-8-8-8-7-7-7-7-7---5---4---4-5-7---4---5-----0------0-----------
-----------------------------------------------------------------------------



« Τελευταία τροποποίηση: Δεκέμβριος 16, 2013, 05:19:29 πμ από krana »
Thought_Criminal
Junior forumist
*****
Αποσυνδεδεμένος Αποσυνδεδεμένος

Μηνύματα: 134


Anarchopunx και τα λοιπά


« Απάντηση #11 στις: Ιούλιος 01, 2009, 08:38:42 μμ »

Θα συνεισφέρω κι εγώ με το "Θεε μου μεγαλοδύναμε" ένα από τα καλύτερα ρεμπέτικα το οποίο είναι αγνώστου συνθέτη και από τα πιο παλιά.

Εισαγωγή:

-7-7-7--8-8--7-7-7--8-8--7-7-7--5--3--2-2-2--3--5--7-7-7--8-8--7-7-7--8-8--7-7-7--5--3--2-2-2--3-3--0-0-0-
----------------------------------------------------------------------------------------------------------------
----------------------------------------------------------------------------------------------------------------

-2-2--0-0-0-
-------------
-------------

Στιχοι:

-7-7-7-7-7--8-8--7-7-7-7-7--5-5-5--3--2--3--5--7-7-7-7-7--8-8-8-8-8--10--8--7-7-7-7--5-5-5--3--2--3--5
------------------------------------------------------------------------------------------------------------
------------------------------------------------------------------------------------------------------------

7-7-7-7-7--8-8-8-8-8--10--8--7-7-7-7--5-5-5--3--2--3--2--0-
---------------------------------------------------------------
---------------------------------------------------------------


Η αλλαγή από εισαγωγή σε στίχους γίνεται με:
-2--3--5-
---------
---------



« Τελευταία τροποποίηση: Δεκέμβριος 16, 2013, 05:24:44 πμ από krana »

* WAR IS PEACE
* FREEDOM IS SLAVERY
* IGNORANCE IS STRENGTH

Thoughtcrime does not entail death. Thoughtcrime IS death
Thought_Criminal
Junior forumist
*****
Αποσυνδεδεμένος Αποσυνδεδεμένος

Μηνύματα: 134


Anarchopunx και τα λοιπά


« Απάντηση #12 στις: Ιούλιος 01, 2009, 08:55:06 μμ »

Άλλο ένα από Γιοβαν Τσαους επίσης κομματάρα το "Πέντε μάγκες στον Περαία"

Εισαγωγή:

-10-12-10--8-10--7-10--8-10-8--7-8--5-8--7-8-7-5--7-3--7-5--0-3-3--0-2-3-2--0-3-5-3--0-5-7-5--8-7-5-7-
-------------------------------------------------------------------------------------------------------------
-------------------------------------------------------------------------------------------------------------

--0-2-3-5-7-5-3-2-3-0-
------------------------
------------------------

Στίχοι:

-0-2-3-5-7-5-3-2-0--0-2-3-5-7-5-7--5-7-8-7-5-3-2-0-2--2-3-5-3-2----0--5-7-8-5--7-8-10-12-10-8-7-5-3-2-3-
---------------------------------------------------------------------4-----------------------------------------
---------------------------------------------------------------------------------------------------------------

--5-7-8-7-5-3-2-0-2--2-3-5-3-2---0-
---------------------------------4---
-------------------------------------



« Τελευταία τροποποίηση: Δεκέμβριος 16, 2013, 05:31:16 πμ από krana »

* WAR IS PEACE
* FREEDOM IS SLAVERY
* IGNORANCE IS STRENGTH

Thoughtcrime does not entail death. Thoughtcrime IS death
tsiblinidis
Newbie
*
Αποσυνδεδεμένος Αποσυνδεδεμένος

Μηνύματα: 4


« Απάντηση #13 στις: Ιούλιος 27, 2009, 09:32:14 μμ »

Θα μπορούσες να παρουσιάσεις και την "πριγκιπέσα" του Μάλαμα; Ο τρόπος σου δουλεύει! ευχαριστώ! ΥΓ: θα χωρούσε μια υπόδειξη του ρυθμού;
ΘΟΔΩΡΗΣ
Junior forumist
*****
Αποσυνδεδεμένος Αποσυνδεδεμένος

Μηνύματα: 75


« Απάντηση #14 στις: Ιούλιος 31, 2009, 08:59:03 μμ »

Παιδιά μπράβο κάνετε πολύ καλή δουλειά....

ανεβάστε ότι μπορείτε από Μάλαμα,Θανάση καθώς και την ''υπόγα'' αν είναι ευκολο..

βοηθάτε πολύ!
Σελίδες: [1] 2 3 ... 207   Πάνω
  Εκτύπωση  
 
Μεταπήδηση σε: