Αποστολέας Θέμα: Παρτιτούρες για Μπαγλαμά Τζουρά 3χορδο μπουζούκι...  (Αναγνώστηκε 2344153 φορές)
matzore
Newbie
*
Αποσυνδεδεμένος Αποσυνδεδεμένος

Μηνύματα: 35


« Απάντηση #225 στις: Δεκέμβριος 18, 2009, 11:26:21 πμ »

magkes sas efxaristo GIA (TO PENTE ELLINES STON ADI)
prospathisa kai ta dyo tabs tou rebeti mou wgike pio efkola yparxi kai kapio anologo video
alterna
Newbie
*
Αποσυνδεδεμένος Αποσυνδεδεμένος

Μηνύματα: 37



« Απάντηση #226 στις: Δεκέμβριος 19, 2009, 12:19:39 μμ »

Ευχαριστώ ρε μάγκες..
philipas
Junior forumist
*****
Αποσυνδεδεμένος Αποσυνδεδεμένος

Μηνύματα: 52


« Απάντηση #227 στις: Δεκέμβριος 20, 2009, 11:28:27 πμ »

Καλημερα!!!
Μηπως θα μπορουσαμε το ΠΑΡΑΠΟΝΙΑΡΙΚΟ Του Χατζηχρηστου?
ΡΕΜΠΕΤΗΣ
Newbie
*
Αποσυνδεδεμένος Αποσυνδεδεμένος

Μηνύματα: 42


« Απάντηση #228 στις: Δεκέμβριος 20, 2009, 06:16:32 μμ »

«ΠΑΡΑΠΟΝΙΑΡΙΚΟ»  -  (Α. ΧΑΤΖΗΧΡΗΣΤΟΣ)

4-----------4--4----4------4-6-4-6-7--8--11-12-8-11-7-8-5-7-4-----
5-4-5-6-5----6--6-6--5-------------------------------------------6--
7--------------------------------------------------------------------

4-----------4--4----4----------------------------------------5--
5-4-5-6-5----6--6-6--5---5-6-5-4--4------------4--4--------5--
7---------------------------------8--8-7-5--8-----8--8-7-8--8--

---------------------------4-7-5-4-----------------4-----------
----------4--5-4------------------6-5-4-6-5-4-5-6--5-6-4-5----
--7-7-8---------8--7--5-4--------------------------------------

Στίχοι
  Ό-τι κιαν έ-χεις στη καρ-διά
--4--------------------------4----4--12-13-12-17-17-16-13-12-11-12----
-----6--5--4--5--6-5-4-6-5--5----5--------------------------------------
-----------------------------7----7--------------------------------------

να μου το λες μι-κρό---- μου
--4---------------------------------7-8-7-12-12-11-8-7-6-7----
-----6--5--4----4----------------------------------------------
--------------8---7-8-6-7--7----7------------------------------

  κιό-χι να κά---θε---σαι------- να κλαι----------αίς
--4--5--7--8----8----11--8--7--6--7----5-7-5-4-4----
------------------------------------------------------
------------------------------------------------------

  πα-ρα-πονιά--------ρι-κο--------- μου
--4--4--5--6--5--5--4--4-----4--5--7-------4--4-5-7----
---------------------------6----------4-5-6---6---------
---------------------------------------------------------

 κιό-χι  να κά---θε---σαι------- να κλαι----------αίς
--4--5--7--8----8----11--8--7--6--7----5-7-5-4-4----
------------------------------------------------------
------------------------------------------------------

   πα--ρα--πο--νιά----------ρι---κο------------- μου
--16--16--17--18--17--17--16--16--13--13--11--12----4------------
---------------------------------------------------------6-5-4-5----
--------------------------------------------------------------------



« Τελευταία τροποποίηση: Δεκέμβριος 26, 2013, 06:59:18 μμ από krana »
staurakas
Newbie
*
Αποσυνδεδεμένος Αποσυνδεδεμένος

Μηνύματα: 24


« Απάντηση #229 στις: Δεκέμβριος 20, 2009, 06:31:59 μμ »

Mpravo Rempeti
Oraios !
To "pente ellines " pou anevasa einai lanthasmeno,
Tha to diorthoso syntoma.
Signomi Matzore an dyskoleuthikes. Opos einai grammeno ... vevea !
staurakas
Newbie
*
Αποσυνδεδεμένος Αποσυνδεδεμένος

Μηνύματα: 24


« Απάντηση #230 στις: Δεκέμβριος 21, 2009, 11:39:32 πμ »

Pente ellines ston ADH
(signomizen!)



7-9---9-(7)-(9)-(11)-7-9----(7)-(9)-(11)-7-9-10-7-9-(10)-(9)-(7)-(10)-(9)----



12-14----16-12-14-10-12-10-9-9----16-17-16-14-14-12-14-----



7-9---9-(7)-(9)-(11)-7-9---(7)-(9)-(11)-7-9-10-7-9-(10)-(9)-(7)-(10)-(9)----


12-11-10-9-7-12-11-12-14-9-9----7-6-(9)-6-7-9----


7-9-9---9-7-9-7-9-11-9-7-9-7-(10)-(9)-(9)----


7-9-9-9-7-14-12-14-16-14-12-14-12-10-9--9----



7-9-9---9-7-14-12-14-16-14-12-14-12-10-9-9---


7-9-9---9-7-7-6-7-9-(10)-(9)-(10)-7-(10)-(9)-(7)-


(5)-(7)-(9)-(7)-7-(10)-(9)-(7)--14--12—14-12-10-9-9---



« Τελευταία τροποποίηση: Δεκέμβριος 26, 2013, 07:04:23 μμ από krana »
matzore
Newbie
*
Αποσυνδεδεμένος Αποσυνδεδεμένος

Μηνύματα: 35


« Απάντηση #231 στις: Δεκέμβριος 21, 2009, 01:34:13 μμ »

 
  GIA TON STAURAKA
philipas
Junior forumist
*****
Αποσυνδεδεμένος Αποσυνδεδεμένος

Μηνύματα: 52


« Απάντηση #232 στις: Δεκέμβριος 21, 2009, 02:10:17 μμ »

ΔΕΝ ΕΧΩ ΛΟΓΙΑ ΝΑ ΣΕ ΕΥΧΑΡΙΣΤΗΣΩ ΡΕΜΠΕΤΗ ΦΙΛΙΠΠΑΣ !!!!

 
ΥΓ.Και τα αλλα παιδια βεβαιως.......
alterna
Newbie
*
Αποσυνδεδεμένος Αποσυνδεδεμένος

Μηνύματα: 37



« Απάντηση #233 στις: Δεκέμβριος 23, 2009, 04:55:13 μμ »

Μπορεί να γίνει κάτι για το Μόρτισσα χασικλού του Μάρκου?
Snake
Newbie
*
Αποσυνδεδεμένος Αποσυνδεδεμένος

Μηνύματα: 9


« Απάντηση #234 στις: Δεκέμβριος 23, 2009, 06:59:31 μμ »

Μπορεί να γίνει κάτι για το Μόρτισσα χασικλού του Μάρκου?


Ναι βρε παιδια αν το ξερει καποιος ας το ανεβασει please! Πολυ ζορικο κομματι.
Επισης το Φεγγαρι αν εισαι Λαμπερο καποιος...........


http://www.youtube.com/user/msylvia9
ΡΕΜΠΕΤΗΣ
Newbie
*
Αποσυνδεδεμένος Αποσυνδεδεμένος

Μηνύματα: 42


« Απάντηση #235 στις: Δεκέμβριος 25, 2009, 06:54:30 μμ »

Χρόνια πολλά σε όλους, καλά Χριστούγεννα
matzore
Newbie
*
Αποσυνδεδεμένος Αποσυνδεδεμένος

Μηνύματα: 35


« Απάντηση #236 στις: Δεκέμβριος 26, 2009, 03:48:42 πμ »

kala xristougena, ygeia kai kales penies
kostas sinaplidis
Newbie
*
Αποσυνδεδεμένος Αποσυνδεδεμένος

Μηνύματα: 14


« Απάντηση #237 στις: Δεκέμβριος 26, 2009, 06:41:36 μμ »

Άλα μάγκες! Να'στε όλοι καλά και καλές γιορτές.
nop77
Newbie
*
Αποσυνδεδεμένος Αποσυνδεδεμένος

Μηνύματα: 1


« Απάντηση #238 στις: Δεκέμβριος 27, 2009, 11:36:48 πμ »

1000 μπράβο σε όλους!! συγχαρητήρια για την δουλειά σας παιδιά

πάρτε και ένα από μένα

ενα ομορφο αμαξι με δυο αλογα ( για μπουζουκι)

0-0--5-5-5-5-5-5-7-8--10-8-7-----8-10-12-10-10-8-8-7-7-5-5-5   (x2)
----------------------------------------------------------------


------------------------------------------------------------------
10-10-10--8-8-8---8-12-12-10-10--8-8-10-12-12--10-10--8-8-6-6-5-5-



-----------------------------------------7-8-10--12-10--10-8-8-7-7--5-5------
10-10-10---8-8-8----8-12-12----10-10-----------------------------------------



« Τελευταία τροποποίηση: Δεκέμβριος 26, 2013, 07:12:52 μμ από krana »
matzore
Newbie
*
Αποσυνδεδεμένος Αποσυνδεδεμένος

Μηνύματα: 35


« Απάντηση #239 στις: Δεκέμβριος 31, 2009, 03:24:18 μμ »

kalh protoxronia.
Me to kalo to neo etos, ygeia, xara kai agaph
Σελίδες: 1 ... 14 15 [16] 17 18 ... 207   Πάνω
  Εκτύπωση  
 
Μεταπήδηση σε: