+ 
|-+  ΜΟΥΣΙΚΗ» Ταμπλατούρες» Αρχίδια
Username:
Password:
Αποστολέας Θέμα: Αρχίδια  (Αναγνώστηκε 5833 φορές)
Anarchy
Junior forumist
*****
Αποσυνδεδεμένος Αποσυνδεδεμένος

Φύλο: Άντρας
Μηνύματα: 152


« στις: Νοέμβριος 10, 2006, 06:33:16 μμ »

Δε με νοιάζεις


C5                                      F5         G5            
B|-------------------------------------3--1--0--|
G|---------------------------2-3-2-0-----------|
D|----2-3-2--3---2-3-2--3--------------------|
A|--3---------3-3------------------------------|
E|-------------1--------------------------------|

B|-------------------------------------------------------|
G|---------------------------2-3-2-3--3-3-3-3-3-3-3--|
D|----2-3-2------2-3-2--3---------5--5-5-5-5-5-5-5--|
A|--3--------3-3--------------------5--5-5-5-5-5-5-5--|
E|--------------------------------------------------------|


C5
Είδα στα μάτια σου τον εγωισμό            | x2
                F5            G5                     | x2
κι είπα να φύγω από δω                       | x2
Πήρα απ’ τις πράξεις σου το μίσος αυτό  | x2
που μ’ έκανε τώρα και σε αγνοώ.          | x2

           C5    G5     F5                                  G5
Δε με νοιάζεις   για τώρα και για πάντα και για όποτε θες
δε με νοιάζεις δεν είμ’ εγώ αυτός που θα γυρίσει στο χθες
δε με νοιάζεις για τώρα και για πάντα και για όποτε θες
δε με νοιάζει πάρε ξανά το ταίρι σου και [πες ό,τι θες]x3

B|-------------------------------------3--1--0-----|
G|---------------------------2-3-2-0--------------|
D|--3-2-3-2--3---2-3-2--3-----------------------|
A|-------------3-3---------------------------------|
E|-------------1------------------------------------|

B|-------------------------------------0-1-3-1-0----|
G|---------------------------2-3-2-0-------------0--|
D|----2-3-2------2-3-2--3--------------------------|
A|--3--------3-3-------------------------------------|
E|----------------------------------------------------|


Είδα στα μάτια σου τον εγωισμό...  x2

Δε με νοιάζεις...

B|------------------------------------3-3-1-0-1--|
G|--------------------------2-3-2-0--------------|
D|----2-3-2------2-3-2--3-----------------------|
A|--3*-------3-3---------------------------------|
E|-------------------------------------------------|

B|-------------------------------------0--1-3-1-0--|
G|---------------------------2-3-2-0---------------|
D|----2-3-2------2-3-2--3-------------------------|
A|--3--------3-3------------------------------------|
E|---------------------------------------------------|

B|------------------------------------------------------|
G|--------------------------2-3-2-0-------------------|
D|----2-3-2------2-3-2--3----------2-3-3-5-3-2-0--|
A|--3--------3-3---------------------2-3-3-5-3-2-0--|
E|------------------------------------------------------|

B|-----------------------------------------------------------------|
G|--------------------------2--------------------------------------|
D|----2-3-2------2-3-2--3---3--2-3-3-5-5-8-8s10-10-10------|
A|--3--------3-3--------------------3-3-5-5-8-8s10-10-10------|
E|------------------------------------1-1-3-3-6-6s-8--8--8-------|


Είδα στα μάτια σου τον εγωισμό...  x2

Δε με νοιάζεις...  C5
« Τελευταία τροποποίηση: Ιανουάριος 15, 2014, 02:40:37 μμ από krana »

Those who have crossed
with direct eyes to death's other Kingdom
remember us -if at all- not as lost violent souls,
but only as the hollow men, the stuffed men.

Mundus Senescit
Anarchy
Junior forumist
*****
Αποσυνδεδεμένος Αποσυνδεδεμένος

Φύλο: Άντρας
Μηνύματα: 152


« Απάντηση #1 στις: Νοέμβριος 10, 2006, 06:37:04 μμ »

Δεν είστε οι μόνοι εδώ


A5  F5  G5F5A5  F5 E5D5C5 A5  F5  G5F5D5  C5  D5C5B5 A5

A5                     F5                  G5 F5 A5
  Λέτε πως έχετε άποψη για όλα,
A5                                 F5             E5 D5 C5 A5
  πως είστε γνώστες, μαλάκες είσαστε!
A5                                   F5                 G5 F5 D5
  Μες στην ασφάλειά σας ζείτε κάθε ώρα,
D5                        C5             D5 C5 B5
  κι αισθήματα, απλόχερα πουλήσατε.

C5   G5         A5       F5
  Δεν είστε οι μόνοι εδώ,
  στην Ελλάδα από μαλάκες πήξαμε-ε-ε-ε.
  Δεν είστε οι μόνοι εδώ,
  στο εξής, στ’ αρχίδια μας σας γράφουμε! E5   E5 D5 C5 B5

Για τα αισθήματα δε δίνετε δεκάρα,
αρκεί μονάχα να περνάτε πιο καλά.
Εκμεταλλεύσου με, ξεζούμισέ με,
στο τέλος μοναχά απομένουν τα σκατά!

Refrain

Με τα ψέματά σας τώρα βολευτείτε,
υποκριθείτε, άει γαμηθείτε!
Το συμφέρον σας καλεί για πολλοστή φορά,
για πολλοστή φορά ζήστε, μες στην πουστιά!

Refrain x4

Those who have crossed
with direct eyes to death's other Kingdom
remember us -if at all- not as lost violent souls,
but only as the hollow men, the stuffed men.

Mundus Senescit
Anarchy
Junior forumist
*****
Αποσυνδεδεμένος Αποσυνδεδεμένος

Φύλο: Άντρας
Μηνύματα: 152


« Απάντηση #2 στις: Νοέμβριος 10, 2006, 06:40:22 μμ »

Παντού


Intro:
2x Distorted Guitar/High-Hat + 2x Distorted/Crush
e|----------------------------------------------------------------|
B|-------------------------------------3-3s5-3----2--4-2-0-2--|
G|----0-2-4-2-0----------0-2-0---0-----------0----------------|
D|-2-------------------2-----------------------------------------|
A|----------------5s3--------------------------------------------|
E|----------------------------------------------------------------|


Riff:
   E5         C5           G5           D5         C5
e|----------12-------------------------------------|
B|--12-15----15--12-13-12-----12-------------| x4
G|-----------------------------14-----14-12-----|
D|--------------------------------------------14--|


E5        C5    G5          D5                 E5  
   Σε παρακαλώ, δώσε μου λεφτά να φάω,     |
C5 G5         D5                E5                     |  
          είμαι μόνος μου πεινάω                    |  x2
C5 G5         D5             E5 C5 G5 D5        |
          είμαι μοναχός πονάω!                        |

E5 C5 G5 D5                  
                     Στους δρόμους!
E5 C5 G5 D5
                     Κι αλλού!
E5 C5 G5 D5
                     Στον κόσμο!
E5 C5 G5 D5
                     Παντού!

E5               C5       G5        D5                E5      
    Υπάρχουν άνθρωποι, άνθρωποι που πονούν,  |
C5 G5               D5    E5                                   |
          γιατί δε σταματούν;!                                |  x2
Υπάρχουν άνθρωποι, άνθρωποι που πονούν,     |
γιατί δε ζουν;!                                                   |

Παντού!

Riff

Κυρία μου, δεν αντέχω δεν μπορώ,
θέλω να φύγω από δω αυτός ο πόνος, μου τρώει τα σωθικά.
Έχω, πεθάνει, χρόνια τώρα πια!

Refrain

Intro

Those who have crossed
with direct eyes to death's other Kingdom
remember us -if at all- not as lost violent souls,
but only as the hollow men, the stuffed men.

Mundus Senescit
Anarchy
Junior forumist
*****
Αποσυνδεδεμένος Αποσυνδεδεμένος

Φύλο: Άντρας
Μηνύματα: 152


« Απάντηση #3 στις: Νοέμβριος 10, 2006, 06:42:34 μμ »

Στ' αρχίδια μας


Όχι Φώτη στ’ αρχίδια μου εμείς θα παίξουμε.

Ναι Νίνο, δε θα μας πει κανένας τι Θα κάνουμε κατάλαβες;

(Πάμε, πάμε Λευτέρη)/Παίξε Λευτέρη, παίξ’ τ’ αρχίδια σου!



G5 sA5 x8  (2x bass +2x bass/guitar +4x bass/guitar/drums)

  G5sA5            G5sA5                     D5 C5 A
Στ’ αρχίδια μας στ’ αρχίδια μας σας γράφουμε
την μπύρα μας την μπύρα μας θα πίνουμε
τη μάπα σας τη μάπα σας θα φτύνουμε
την μπύρα μας την μπύρα μας πίναμε

Μας πρήζετε μας κράζετε σας γράφουμε
τ’ αρχίδια μας τ’ αρχίδια μας  παίζουμε
τι ‘ν’ αυτό; Θα τρελαθώ! Γαλλικά (μπλιάχ!)
η μπύρα μου ζεστάθηκε και την πέταξα

Στη μάπα σας μουνόπανα την πέταξα
στη μάπα σας μουνόπανα και γέλασα (χα-χα!)
δεν ξέρετε να τρέχετε στ’ αρχίδια μας
[εμείς όμως θα παίζουμε τ’ αρχίδια μας] x2

G5 sA5 x8  (2x bass +2x bass/guitar +4x bass/guitar/drums)

Οι μπύρες μας τελειώσανε μα ήρθαμε
τα φράγκα μας τελειώσανε την κάτσαμε
ξένε συ έλα δω να σου πω
τι ‘ν΄ αυτά που φοράς; Φέρ’ τα δω

Tον σφάξαμε, τον κερατά, κοίτα μας
του πήραμε, και τα λεφτά, μπύρα πολύ για μας!


Έτσι μπράβο ρε μαλάκα στ’ αρχίδια μας!

Να πάει να γαμηθεί στ’ αρχίδια μου μπέέααα!!!

Μας τα ‘πρηξες!

Και στ’ αρχίδια μας.

Α γαμήσου στ’ αρχίδια μου!

Those who have crossed
with direct eyes to death's other Kingdom
remember us -if at all- not as lost violent souls,
but only as the hollow men, the stuffed men.

Mundus Senescit
Anarchy
Junior forumist
*****
Αποσυνδεδεμένος Αποσυνδεδεμένος

Φύλο: Άντρας
Μηνύματα: 152


« Απάντηση #4 στις: Νοέμβριος 10, 2006, 06:45:05 μμ »

Όταν τα σκατώνεις


Τελευταία φορά μαλάκα που το...

Ε το γάμησες πάλι!

Σαν γκόμενα κάνεις πάντα μαλάκα όχι που στα λέγαμε.

Σκάσε ρε μαλάκα!

Τα σκάτωσες ρε μαλάκα!

Δεν αντέχω ρε μαλάκα!

Γιά γιάι...

¶ντε τελείωνε τελείωνε.

Τα σκάτωσες ρε μαλάκα.  Τα σκάτωσες πάλι βλάκα.



G5 C5 x4  (2x guitars +2x guitars/bass/drums)

G5                          C5
Όταν τα σκατώνεις  δεν είν’ ωραία | x2
A5                          D5                   | x2
όταν τα σκατώνεις  δεν είν’ ωραία | x2

Δεν είναι ωραία  δεν είν’ ωραία  |x2
δεν είναι ωραία  δεν είν’ ωραία  |x2

Όταν τα σκατώνεις  δεν είν’ ωραία | x2

Τι λες εδώ;
¶σε μας ρε μαλάκα άντε γαμήσου!
Έλα ρε μαλάκα πάμε πάλι.
Όχι να σκάσεις ρε μαλάκα.
¶ στο διάλο ρε ¶ααααι άι άι άι άι άι άι!



Όταν τα σκατώνεις  δεν είν’ ωραία | x2
όταν τα σκατώνεις  δεν είν’ ωραία | x2

Δεν είναι ωραία  δεν είν’ ωραία  | x2
δεν είναι ωραία  δεν είν’ ωραία  | x2

G5 C5 A5 D5 x2

Μπορείς να παίξεις 111 νότες ρε μαλάκα.

Όταν τα σκατώνεις  δεν είν’ ωραία | x2
όταν τα σκατώνεις  δεν είν’ ωραία | x2  (ξύσιμο κιθάρας)

G5 C5 A5 D5 x2  (¶αααααα! Δεν είν’ ωραία δεν είν’ ωραία)

Δεν είναι ωραία  δεν είν’ ωραία  | x2
δεν είναι ωραία  δεν είν’ ωραία  | x2
(¶ιαιαιααα δεν είν’ ωραία!)

Δεν είναι ωραία  δεν είν’ ωραία
δεν είναι ωραία  δεν είν’ ωραία
(αργά)

Όταν τα σκατώνεις  δεν είν’ ωραία
όταν τα σκατώνεις  δεν είν’ ωραία
(αργά)

Όταν τα σκατώνεις  δεν είν’ ωραία | x2
όταν τα σκατώνεις  δεν είν’ ωραία | x2
(με κλιμακούμενη ένταση)

Δεν είναι ωραία  δεν είν’ ωραία  | x2
δεν είναι ωραία  δεν είν’ ωραία  | x2
(δυνατά)


Μπλια μπλιααα!!!

Γαμώ τη μαλακία μου μέσα.

Μαλάκα τα γράφουν βασικά αυτά!

Τι κοιτάς σκατά τα ‘κανες!

Σκατά κι απόσκατα μαλάκα.

Ζεστάθηκε μαλάκα θα σκάσει.

Το μουνί της μάνας;

Στ’ αρχίδια μας!...

Those who have crossed
with direct eyes to death's other Kingdom
remember us -if at all- not as lost violent souls,
but only as the hollow men, the stuffed men.

Mundus Senescit
Σελίδες: [1]   Πάνω
  Εκτύπωση  
 
Μεταπήδηση σε: