ΜΟΥΣΙΚΗ => Ταμπλατούρες => Μήνυμα ξεκίνησε από: krana στις Δεκέμβριος 13, 2013, 10:44:29 μμ



Τίτλος: Lost Bodies
Αποστολή από: krana στις Δεκέμβριος 13, 2013, 10:44:29 μμ
Περιεχόμενα:

  • Χάνομαι (http://www.diymusic.org/forumsmf/index.php?topic=7415.msg35956#msg35956)


Τίτλος: Χάνομαι
Αποστολή από: krana στις Δεκέμβριος 13, 2013, 10:47:09 μμ
Χάνομαι (Lost Bodies)

Μουσική/Στίχοι: Lost Bodies
Δίσκος: Ζωή (1997)



Intro (Dm Bb | Dm Bb)

      Dm                                       Bb
Τα μάτια σου με μαγέψανε δεν μπορώ ν' αρνηθώ ονειρεύομαι
ταξιδεύει η σκέψη σταματάει σε σένα ένα τείχος γλυκό τα χείλη σου
Μα περνάει η ώρα κοιτάς το ρολόι σου σηκώνεσαι και φεύγεις ξανά
και δε μπορώ εγώ να σε σταματήσω είσαι η θάλασσα και είμαι η ακτή

(Dm Dm | Dm Dm)

C9   Dm C9                      Riff  
Περπατώ μα δεν ξέρω πού πάω
Περπατώ όλοι οι δρόμοι οδηγούν σε σένα

Μα χάνομαι (Dm Bb | Dm Dm)


Flute Solo (Dm Bb | Dm Bb | Dm Bb | Dm Bb)

Τα φώτα όλα είναι σβηστά τα χέρια μου και αυτά τυφλά
φωνάζω εσένα με ακούνε όλοι με κοιτάζουνε με λένε τρελό
Μα στα αλήθεια είμαι είμαι για σένα πρωινή σιωπή μια στιγμή μια ζωή
και είσαι η κραυγή του δάσους τη νύχτα ο άνεμος κάτω απ' τη φτερούγα μου

(Dm Dm | Dm Dm)

Περπατώ μα δεν ξέρω που πάω
Περπατώ όλοι οι δρόμοι οδηγούν σε σένα

Μα χάνομαι (Dm Bb | Dm Bb)

Flute Solo (Dm Bb | Dm Bb | Dm)



Intro:
    Dm                           Bb
e|------1-0-----1------1-0-----1-------1-0-----0-------1-0-----0--|
B|---------------------------------------3-----3---------3-----3--|
G|----2-------2------2-------2-------3-------3-------3-------3----|
D|--0-------0----0-0-------0-----0-3-------3-------3-------3------|
A|----------------------------------------------------------------|
E|----------------------------------------------------------------| x2
0:04

Riff:                      C9
e|------------------|   |--0--|
B|------------------|   |--3--|
G|-----0----0----0--|   |--0--|
D|--3----2----0-----|   |--2--|
A|------------------|   |--3--|
E|------------------|   |--0--|
0:59/2:34




www.youtube.com/watch?v=gxii9Y4q4Lk