ΜΟΥΣΙΚΗ => Ταμπλατούρες => Μήνυμα ξεκίνησε από: krana στις Οκτώβριος 31, 2013, 05:02:31 μμ



Τίτλος: Ζωή Τάχα
Αποστολή από: krana στις Οκτώβριος 31, 2013, 05:02:31 μμ
Πρόκληση (Παλαιστινιακό)

Μουσική: Ζωή Τάχα
Στίχοι: Μαχμούντ Νταρουίς (Mahmoud Darwish)
Δίσκος: Ηχογράφηση Πρόβας (2013)



Intro  (Em x4)

   Em                     C                               Am                                  C
Σφίξε μου τα σκοινιά απαγόρεψέ μου τα όλα, τσιγάρα, μολύβια και χαρτιά
   Em                     C                               Am                              Em
Σφίξε μου τα σκοινιά απαγόρεψέ μου τα όλα σβήσε στο χώμα τη φωτιά.

  Am                        Em                                    C               Am
Πουλιά μυριάδες πάνω στης καρδιάς μου τα κλαδιά, γράφουνε το τραγούδι μου
  Am                        Em                                    C               Am             Em
Πουλιά μυριάδες πάνω στης καρδιάς μου τα κλαδιά, γράφουνε το τραγούδι μου


Το τραγούδι είναι το αίμα, το αλάτι του ψωμιού, το νερό του ματιού
Το τραγούδι είναι το αίμα, γράφεται με τα νύχια, με το λαρρύγι, τη ματιά.

Πουλιά μυριάδες... x2


Μέσα από το κρατητήριο, τα συρματοπλέγματα, με χειροπέδες και δεσμά
Μέσα από το κρατητήριο, κάτω από το μαστίγιο, κάτω απ' τις αλυσίδες.

Πουλιά μυριάδες... x2


Το τραγούδι είναι το αίμα...

Πουλιά μυριάδες... x2


Μέσα από το κρατητήριο...

Πουλιά μυριάδες... x2


Solo


Πουλιά μυριάδες... x2



Refrain:
    Am              Em              C         Am
e|---------------------------------------------------------------------|
B|---------------------------------------------------------------------|
G|----9--9-7---------------------------------7-------------------------|
D|--7--------10-9-7---7--7-9-------------------------------------------|
A|------------------7--------10-9-7---10--10----10-9-7-----------------|
E|----------------------------------8----------8-------0-5--5-7--87-5--|
1:05

    Am              Em              C        Am        Em
e|-------------------------------------------------------------------|
B|-------------------------------------------------------------------|
G|----9--9-7---------------------------------7-----------------------|
D|--7--------10-9-7---7--7-9-----------------------------------------|
A|------------------7--------10-9-7---10--10----10-9-7-7-------------|
E|----------------------------------8----------8---------0--0-101-0--|
0:16



σημ.1: οι συγχορδίες ακούγεται ότι παίζονται σαν πέμπτες στις χορδές A, D και G.

   Em  C  Am
e|-----------|
B|-----------|
G|--4--5--2--|
D|--2--5--2--|
A|--2--3--0--|
E|-----------|



σημ.2: οι Ζωή Τάχα είναι το σχήμα που δημιουργήθηκε μετά τη διάλυση των Ωχρά Σπειροχαίτη. ο δίσκος για κατέβασμα: http://zoitaxa.net/?audio=prova
.



www.youtube.com/watch?v=PrDw996Ht1U


Τίτλος: Απ: Ζωή Τάχα
Αποστολή από: ζωή τάχα στις Μάρτιος 05, 2014, 03:06:40 μμ
καλή δουλειά

Στο ρεφραίν:
Πουλιά μυριάδες πάνω στης καρδιάς μου τα κλαδιά, γράφουνε το τραγούδι μου
αντί για "γράφουνε"... "πλάθουνε"

και το Am στο ρεφραίν στο πρώτο δίστιχο είναι Am9 (δηλαδή μένει η χορδή Β ανοιχτή στο ακόρντο όταν παίζεται στα πρώτα τάστα)

να' στε καλά
και θα τα πούμε στην Πάτρα 15/2...


Τίτλος: Απ: Ζωή Τάχα
Αποστολή από: krana στις Μάρτιος 05, 2014, 08:20:19 μμ

 να 'σαι καλά φίλε.

 σας ευχαριστούμε γι' αυτά τα πανέμορφα τραγούδια. :))