ΜΟΥΣΙΚΗ => Ταμπλατούρες => Μήνυμα ξεκίνησε από: Anonymous στις Μάρτιος 22, 2006, 01:11:17 πμ



Τίτλος: Χάσμα
Αποστολή από: Anonymous στις Μάρτιος 22, 2006, 01:11:17 πμ
{ μπασο}

G ---------------------
D -------------------1-
A -----2-2-2-4-4-1-1---
E -4-4-----------------

G ----------
D ----------
A ----------
E --444444440

G ----------------------------------
D -------------------------11111111-
A --------44444444-22222222---------
E 44444444--------------------------


Τίτλος: Punk: Χάσμα
Αποστολή από: Sid στις Ιούλιος 14, 2006, 10:54:32 μμ
Χάσμα - Κλώνος

Το ριφάκι πάει έτσι:
 
e-----------------------------------------------
b-----------------------------------------------
g-----------------------------------------------
d-----------------------------2-----------------
a-0---00---333----5--55--222--------------------
e-----------------------------------------------
 
Μετά το κουπλέ
 
e-----------------------------------------------
b-----------------------------------------------
g------------------5555-------------------------
d--7777----3333----5555----2222-----------------
a--7777----3333----3333----2222-----------------
e--5555----1111------------0000-----------------
 
Και μετά στη γέφυρα κάνει
 
e-----------------------------------------------
b-----------------------------------------------
g-----------------------7777--------------------
d-----2222-----7777-----7777---3333---5555------
a-----2222-----7777-----5555---3333---5555------
e-----0000-----5555------------1111---3333------
 
Και μετά πάλι κουπλέ
  8)


Τίτλος: Χάσμα - Φυλακή Με Χαρά tab
Αποστολή από: sakis στις Φεβρουάριος 12, 2010, 04:57:14 μμ
El----------------------------------------------------------------  l
Bl----------------------------------------------------------------  l
Gl---------------------------------------------------------------   l
Dl---0---0--2--0--------------0--------2-0-2---------0--4-4---2-  l
Al-2---4---------4-0--2-2-0-2-----------------0-1-2-------------  l
El------------------------------2-1-0--------------------------- 5-l



El-------------------------------------------------------------------l
Bl-------------------------------------------------------------------l
Gl-------------------------------------------------------------------l
Dl------0-4-0-2-0---------------0---------2-0-2---------0----1--2-- l
Al--1-2-----------4-0--2-2--0-2------------------0-1-2--------------l
El---------------------------------2-1-0------------------3--------5-l


Τίτλος: Ταμπλατουρες απο Χασμα
Αποστολή από: Σύλλας στις Οκτώβριος 25, 2010, 12:02:19 πμ
Γεια σας,Ψαχνω ταμπλατουρα για το οτι αγαπω ειναι για λιγο και για το καθε φορα που αλλος γινομαι..οποιος εχει κατι ας το ποσταρει

ευχαριστω:)