ΜΟΥΣΙΚΗ => Ταμπλατούρες => Μήνυμα ξεκίνησε από: Polis166 στις Ιανουάριος 23, 2006, 01:39:04 πμ



Τίτλος: Αγγελάκας Γιάννης
Αποστολή από: Polis166 στις Ιανουάριος 23, 2006, 01:39:04 πμ
Όποιος δεν έχει δει αυτή την ταινία του Νίκου Νικολαΐδη, χάνει.


Ο χαμένος τα παίρνει όλα  (Αγγελάκας Γιάννης & Λαζαρινός Στέφανος)

   Dm
Γλένταγες στους ουρανούς με ζάρια και χαρτιά
Και ξάφνου στα σκοτάδια μας γκρεμίστηκες με φόρα
Gm
τώρα κρυώνεις και πεινάς μα ασ' το σε μας
A                              A7
για σένα βράζει αυτή η άδεια κατσαρόλα
 
Μη δίνεις σημασία που όλα γίναν βιαστικά
Κι αν δεν πρόλαβες να πεις δυο-τρία λόγια
το ξες πως είναι κερδισμένος τελικά
οποίος χαμογελάει μπροστά στην καρμανιόλα
 
Δεν πειράζει που δε σου 'ρθε η ζαριά
Τζογάρισε στο όνειρο κι είσαι έτοιμος για όλα
Το λέει κι ένα τραγούδι που μας μάθαιναν παλιά
Ο χαμένος τα παίρνει όλα
 
Μην γκρινιάζεις που δε σου 'ρθε η ζαριά
Τζογάρισε στο όνειρο κι είσαι έτοιμος για όλα
Το λέει κι ένα τραγούδι που μας μάθαιναν παλιά
Ο χαμένος τα παίρνει όλα
 

Συμπλήρωση από τον rockergr, στις 8/9/2003:
 
6-χορδο μπουζούκι (αν υπάρχει μπαγλαμάς, είναι το ίδιο 12 τάστα πιο πάνω)
D- -19-19-19-19-19-19-19-19-19-19-19-19-19-19-19-19-
A- -17-17-17-17-17-17-17-17-17-17-17-17-17-17-17-17-
D- -15-15-15-15-15-15-15-15-14-14-14-14-14-14-14-14-
 
Κιθάρα (Στη Α7 παίζει περίπου αυτό το riff)
E-------------------------
A--0---------------------
D----------2-------------
G----0-----------2-0----
B-------2-----2----------
E----------------------0--



www.youtube.com/watch?v=hhZ0FnuFQDw


Τίτλος: Ευγνωμοσύνη
Αποστολή από: krana στις Αύγουστος 13, 2013, 09:26:54 μμ
Ευγνωμοσύνη (Γιάννης Αγγελάκας)

Μουσική/Στίχοι: Γιάννης Αγγελάκας
Δίσκος: Η γελαστή ανηφόρα (2013)




Intro x2 | Refrain

      Dm9                                                     A
Ξυπνάω, ξυπνάω, ξυπνάω σαν παιδί μες στη χαρά
κι έχω σε όλους, σε όλους και σε όλα εμπιστοσύνη
κι η μέρα μου, η μέρα μου, η μέρα μου κυλάει απαλά
και το χαμό-, το χαμό-, το χαμόγελο απ' τα χείλη μου δε σβήνει

               Dm9                                     A    
Ό,τι κι αν γίνει, ό,τι κι αν γίνει, ό,τι κι αν γίνει
                            G
μ' ένα χαπάκι τόσο δα
           Dm9         Bb              A
ξαναγεμίζει η καρδιά μου καλοσύνη
ευγνωμοσύνη γιατρέ μου ευγνωμοσύνη
ευγνωμοσύνη γιατρέ μου ευγνωμοσύνη


Intro x2 | Refrain

Έχω σε όλους, σε όλους και σε όλα εμπιστοσύνη
έχω σ' εσένα, σ' εσένα και σ' εμένα εμπιστοσύνη
σ' αυτούς που κυβερνάνε τη ζωή μου, σ' αυτούς που προστατεύουν την ψυχή μου
έχω σε όλους, σε όλους και σε όλα μα σε όλα εμπιστοσύνη

Ό,τι κι αν γίνει, ό,τι κι αν γίνει, ό,τι κι αν γίνει
μ' ένα χαπάκι τόσο δα
ξαναγεμίζει η καρδιά μου καλοσύνη
ευγνωμοσύνη γιατρέ μου ευγνωμοσύνη
ευγνωμοσύνη γιατρέ μου ευγνωμοσύνη


Intro





Intro:
                    Dm9                               A9     A7     A          
e|-----------------------------------------------------------3-3-3---------|
B|----------------------------------------------------2-2-2--2-2-2--2-2-2--|
G|----------------------------------------------0-----3-3-3--2-2-2--2-2-2--|
D|--3-2-0-3-2-0-3-2-0-0-0-0-0-0-0-0---0-2---0-2-------2-2-2---------2-2-2--|
A|----------------------------------3-----3-------3-0----------------------|
E|-------------------------------------------------------------------------|

d|------------------7-7-7-7-7-7-7-7-7-7-7-7-7-7-7-7-7-8-8-8--5-5-5--8-8-8--|
A|------------------5-5-5-5-5-5-5-5-5-5-5-5-5-5-5-5-5-7-7-7--7-7-7--7-7-7--|
D|------------------7-7-7-7-7-7-7-7-7-7-7-7-7-7-7-7-7-8-8-8--5-5-5--8-8-8--|
0:00/0:14
                    Dm9                               A9     A7     A          
e|-----------------------------------------------------------3-3-3---------|
B|----------------------------------------------------2-2-2--2-2-2--2-2-2--|
G|----------------------------------------------0-----3-3-3--2-2-2--2-2-2--|
D|--3-2-0-3-2-0-3-2-0-0-0-0-0-0-0-0---0-2---0-2-------2-2-2---------2-2-2--|
A|----------------------------------3-----3-------3-0----------------------|
E|-------------------------------------------------------------------------|

d|----5-5-5-5-5-5-5-7-7-7-7-7-7-7-7-7-7-7-7-7-7-7-7-7-8-8-8--5-5-5--8-8-8--|
A|----7-7-7-7-7-7-7-5-5-5-5-5-5-5-5-5-5-5-5-5-5-5-5-5-7-7-7--7-7-7--7-7-7--|
D|----5-5-5-5-5-5-5-7-7-7-7-7-7-7-7-7-7-7-7-7-7-7-7-7-8-8-8--5-5-5--8-8-8--|
0:07/0:22


Refrain:
                  G                 Dm9     Bb      A
e|-----------------------------------------------------------------|
B|-----------------------------------------------------------------|
G|----------0-2-3-0-----------------7-7-7--------------------------|
D|----0-2-3---------5-5-5-5-5-5-5-5-7-7-7---8-8-8---7-7-7-7-7-7-7--|
A|--3---------------5-5-5-5-5-5-5-5-5-5-5-0-8-8-8---7-7-7-7-7-7-7--|
E|------------------3-3-3-3-3-3-3-3---------6-6-6-3-5-5-5-5-5-5-5--|

d|----5-5-5-5-5-5-5------------------------------------------------|
A|----7-7-7-7-7-7-7------------------------------------------------|
D|----5-5-5-5-5-5-5------------------------------------------------|
0:29
      Dm9     Bb      A               Dm9     Bb      A
e|--------------------------------------------------------------------------|
B|--------------------------------------------------------------------------|
G|----7-7-7---------------------------7-7-7---------------------------------|
D|----7-7-7---8-8-8---7-7-7-7-7-7-7---7-7-7---8-8-8---7-7-7-7-7--7-7-7-7-7--|
A|--0-5-5-5-0-8-8-8---7-7-7-7-7-7-7-0-5-5-5-0-8-8-8---7-7-7-7-7--7-7-7-7-7--|
E|------------6-6-6-3-5-5-5-5-5-5-5-----------6-6-6-3-5-5-5-5-5--5-5-5-5-5--|

d|--------------------------------------------------------------------------|
A|--------------------------------------------------------------------------|
D|--------------------------------------------------------------------------|
0:35




www.youtube.com/watch?v=V6BVD6VGaL0