ΜΟΥΣΙΚΗ => Ταμπλατούρες => Μήνυμα ξεκίνησε από: Anarchy στις Ιανουάριος 03, 2006, 02:20:41 μμ



Τίτλος: Τρύπες
Αποστολή από: Anarchy στις Ιανουάριος 03, 2006, 02:20:41 μμ
4x drums, Intro x4

Am                     C
  Χάρτινο τσίρκο, μόλις σε βρίσκω,
Em                                      G
  γέλια σκεπάζουν κάθε αστείο μου λυγμό.
  Μέσα σου θέλω για πάντα να ζήσω,
  σαν τη σκιά στο πανηγύρι των σκιών.
 
Ότι σκοτώνει τη δική μου χαρά,
είναι μια φάρσα που με κόβει στα δύο.
Με πιάνει απ' το χέρι, και με λόγια γλυκά,
σα παιδί μ' οδηγάει, στ' όμορφό σου σφαγείο.

        Bm         E
Και να 'μαι ξανά
             G                                      D
Σ' ένα πλήθος που θυμίζει κάποιον άγνωστο φίλο
Κλωτσάω στα τυφλά
Σα παλιάτσος σκοντάφτω πάνω στο ίδιο θηρίο
Που όλο μου λέει
Πως η δικιά μου σκλαβιά ειν' ένα χάρτινο τσίρκο
Με κάνει να κλαίω
Και φαίνομαι αστείος, γίνομαι αστείος

Intro x4

Χάρτινο τσίρκο, μόλις σε βρίσκω,
κλαίω σαν άντρας σαν παιδάκι γελώ.
Μέσα σου θέλω, μια μέρα να σβήσω,
σαν τον τρελό στο πανηγύρι των τρελών.

Ότι ξυπνάει τη δική μου χαρά,
ειν\' ένα όνειρο σπασμένο στα δύο.
Ψηλά με κρατάει, στη ζεστή του αγκαλιά,
με πετάει ξαφνικά, στο σκοτεινό σου ψυγείο.

Refrain, Intro x4    Φαίνομαι αστείος, γίνομαι αστείος...


Intro:
    Am         Am               C
G|--5-4-2------5-4-2------2-0---0*--0-2h4-4-0*--|
D|----------2*---------2*-------2-----------------------|
 
Verse 1 & 3          Verse 2 & 4:
B|--------        --------------------5-----------------------      --|
G|--5--4-- x8 --5-4-5-7-5-4-5----5-4-5-4-5-4-5-4-- x2 --|

Refrain:
G|--------------------------------11-11-11-9--11 x6 --|
D|----------9-9-11-11-12-12---------------------------| x4
Α|----------------------------------------------------------|
E|--7s12--------------------------------------------------|

 
Solo:
Am Em x2
G|-----------------------------|-5----5--5---4----4---4---|
D|---------2----2-------------|---7---7--7----5----5--5--|
A|-----2-3----5----5---2----|-----7-------------7---------|
E|--5-----------------------3-|------------------------------|
                                     x4                                   x2

G|-5-5-5-5-5-5---5-5-5-5-5-5-5-4-4-4-4-4-4---4-4-4-4-4-4--
D|----------------7-----------------------------------5----------------- x4


Η ζωή είναι μικρή για να είναι θλιβερή μωρό μου... Α ρε τιμημένε Αγγελάκα με τη Σαλονικιώτική προφορά!