ΜΟΥΣΙΚΗ => Ταμπλατούρες => Μήνυμα ξεκίνησε από: Anarchy στις Ιανουάριος 03, 2006, 02:09:45 μμ



Τίτλος: Υπόγεια Ρεύματα
Αποστολή από: Anarchy στις Ιανουάριος 03, 2006, 02:09:45 μμ
Intro x1 + 2x 2G + 2x fill 1 2G

Dm                                   F C             Dm  [F C]  fill 2
   Οι φίλοι μου είναι κραυγές   στη σιωπή
Dm                                  F   C                 Dm  [F C]  fill 2
   οι φίλοι μου φώτα κινδύνου   στο σκοτάδι
Gm              A#                   F  C                    Dm [F C] fill 2*
   Μόνοι σα δέντρα των κορφών    σα προσευχή
Dm                              F          C                 Dm fill1x2
   παιδιά που δε γυρίζουνε στο σπίτι τους το βράδυ

Οι πιο πολλοί λατρεύουν τις αργίες
μα οι φίλοι μου μισούν τις Κυριακές
Κρύβονται πίσω απ' τα φώτα στο λιμάνι
βάζουν φωτιές, βάζουν φωτιές

Σ' αρπάζει απ' τα μαλλιά η ασημένια σφίγγα
βραδιές-βραδιές και σε τινάζει πάνω
Έκανα δρόμο να σε δω, μα δε σε βρήκα
στέκω στις μύτες των ποδιών, μα δε σε φτάνω

Κακή εποχή κακές στιγμές μου φέρνει
χώμα μυρίζω, μοβ σκιές βλέπω θαμπά
Σαν ένα σαπιοκάραβο που στα ρηχά ξεσέρνει
σαν του Ιούδα φίλημα θα φύγω μακριά

Solo (8 μέτρα)
 
5ες slow
 
Ξέρεις πως είναι να διαβάζεις στο σκοτάδι  (bass 5ες)
ξέρεις πως είναι να δακρύζεις στα κρυφά
Φώτα της πόλης και μεγάλοι άδειοι δρόμοι
D          F                F        C               D D C D
τα όνειρα της Κυριακής κοστίζουν ακριβά  
 

     Dm                                  F       C
e|------------------------------------------------------------|
B|-----3-3----3-3------------------3-3----3-3-------------|
G|----2------2-------3-2-0-0----0------0------------------|
D|--0------0---------------------3------2-------------------|
A|-------------------------------------------------2-3-2-3--|
E|------------------------------------------------------------|

   fill 1                                       fill 2
e|-----------------------------------|-------------------------|
B|-----------------------------------|-------------------------|
G|-----------------------------------|-------------------------|
D|----7--7h8p7-5-----------------|--------------------------|
A|--5----------------8--7-(----5)--|--7h9p7-5--------------|
E|--------------------------(7-8--)--|------------7--7/10*--|