Diymusic.org

ΜΟΥΣΙΚΗ => Ταμπλατούρες => Μήνυμα ξεκίνησε από: atopos στις Δεκέμβριος 11, 2007, 03:22:29 μμ



Τίτλος: Παρτιτούρες για Μπαγλαμά Τζουρά 3χορδο μπουζούκι...
Αποστολή από: atopos στις Δεκέμβριος 11, 2007, 03:22:29 μμ
 Αποφάσισα να γράψω εδώ κάποια τραγούδια για αυτά τα όργανα, με κάθε επιφύλαξη καθώς τα έχω βγάλει ή μόνος μου, ή μου τα έχουν δείξει φίλοι. Όποιος ξέρει κάποιο άλλο, ας το βάλει, κι όποιος έχει κάποιο απ' τα τραγούδια αυτά ας το ανεβάσει.

Καλή διασκέδαση ;) ;D 8)


Τίτλος: Πεχλιβάνης [1] (Θανάσης Παπακωνσταντίνου)
Αποστολή από: atopos στις Δεκέμβριος 11, 2007, 03:59:18 μμ
Πεχλιβάνης - Θ. Παπακωσταντίνου

Εισαγωγή

7-7-5-3-3-2-0-0-------------------0---2---0-0-2-3-7-5-3-2-3-5-7-7-5-3-3-2-0-0---------------------2-0-0-2-0-
-----------------3-2-0------0-2-3----3---3--------------------------------------3-2-0-----0-2-3-5-3--3---3-3-3
------------------------5-5-------------------------------------------------------------5-5---------------------

Λόγια

Μέρος πρώτο (Μια νύχτα θα ρθει από μακριά..)

|2|-2-2-2-3-2-3-2-0-|0|-0-8-7-8-5-7-3-0-|2|-2-2-2-3-2-3-2-0-|0|-0---2--0---|2|-2-2-2-3-2-3-2-0-|0|-8-7-8-5-7-3-0-|2|-2-2-2-3-2-3-2-0-|0|-0---2--0
|3|------------------|0|------------------|3|-------------------|0|---3--3--3--|3|------------------|0|----------------|3|------------------|0|---3--3--3
|5|------------------|0|------------------|5|-------------------|0|------------|5|------------------|0|----------------|5|------------------|0|----------

Μέρος δεύτερο (θα χει θυμάρι στα μαλλιά..)

|7|-7-7-7-8-7-5-3-|8|-8-8-8-10-8-10-8-|7|-5-3-5-|7|-0
|3|----------------|5|------------------|3|--------|3|--
|3|----------------|5|------------------|3|--------|3|--

και μετά πάλι το πρώτο μέρος, μετά εισαγωγή, και μετά το ίδιο, με τα υπόλοιπα λόγια, ελπίζω να βοήθησα... ;)
εντός ολίγον λεπτόν (ελπίζω) έρχεται και το 2ο κομμάτι, που θα είναι και πιο εύκολο


Τίτλος: Φραγκοσυριανή (Μάρκος Βαμβακάρης)
Αποστολή από: atopos στις Δεκέμβριος 11, 2007, 04:34:18 μμ
Φραγκοσυριανή - Μ. Βαμβακάρης

Εισαγωγή

-12-12-12-12-13-12-7-7-7-8-7-5-5-5-7-5-3-3-3-5-3-2-2-2-3-2-0--0-2-3-2-5-4-3-2-2-3-4-5-7-5-3-3-3-5-3-2-2-2-3-2-0-0-0-2-0------2-3-5-3-2-3-0---|0|
-----------------------------------------------------------------4---------------------------------------------------------------0-4----------------0-|0|
-------------------------------------------------------------------------------------------------------------------------------------------------------|0|

-------------------------
4-5-5-0-1-0-4-5-5-0-1-1
-------------------------

Λόγια

2-|3|-3-|3|-3-|3|-3-3-3-3-|3|-3-2-------|2|-5-4-3-|2|-2-3-|5|-5-8-7-5-7-5-|3|-2------2-3-|2|-5-4-3-|2|-2-3-|5|-5-8-7-5-7-5-|3|-2-------2-3-0--|0|
--|0|---|0|---|0|----------|0|-----5-4-5-|2|-------|2|-----|5|--------------|3|---5-4-5-----|2|-------|2|-----|5|--------------|3|---5-4-5-------0-|0|
--|0|---|0|---|0|----------|0|-----------|5|-------|5|------|5|--------------|3|-------------|5|-------|5|-----|5|--------------|3|-----------------|0|

όπου βάζω | σημένει πως όλες οι θέσεις που είναι στην ευθεία, πχ |2| παίζονται όλες με μια πενιά, είναι ακόρντα.
                                                                                        |2|
                                                                                        |5|

το επόμενο κομμάτι το βράδυ ή αύριο
και αν υπάρχει έστω ένας που να παίζει τρίχορδο, και ενδιαφέρεται για όσα γράφω, ας το πει, θα μου δώσει κουράγιο  ;)


Τίτλος: Απ: Παρτιτούρες για Μπαγλαμά Τζουρά 3χορδο μπουζούκι...
Αποστολή από: kthulu στις Δεκέμβριος 11, 2007, 10:04:33 μμ
Δώσε πράμα στο λαό:) Παραγγελιες επιτρέπονται; Οτιδήποτε έχεις από παλιά ρεμπέτικα θα με ενδιέφερε:)


Τίτλος: Απ: Παρτιτούρες για Μπαγλαμά Τζουρά 3χορδο μπουζούκι...
Αποστολή από: atopos στις Δεκέμβριος 11, 2007, 10:50:35 μμ
σε 10' ξεκινάω να γράψω τα εξής τραγούδια (δεν έχω και μεγάλο ρεπερτόριο)
-τα ματόκλαδα σου λάμπουν
-παξιμαδοκλέφτρα
-το πιτσιρίκι
-καίγομαι καίγομαι
-διάφανος
-όταν χαράζει
-ήρωες (ναι το αντάρτικο)
-my number one (ναι της Παπαρίζου)
-όσοι έχουνε πολλά λεφτά

Επίσης να σημιώσω πως ψάχνω τπτ από τσιτσάνη, συγκεκριμένα το "νύχτωσε χωρίς φεγγάρι" και ότι άλλο παίζει, όποιος έχει γνώση ας μου δώσει λινκ ή να μου στείλει στο μσν (ναι είχα και στο χωριό μου). ;) :D ;D

Επίσης παραγκελιές επιτρέπονται κθούλου, αλλά να σημπεριλαμβάνονται και σε μπ3 τα τραγούδια, επίσης ψιλοδύσκολα τα βγάζω, θα προσπαθήσω πάντως


Τίτλος: Όταν χαράζει (Θανάσης Παπακωνσταντίνου - Γιάννης Αγγελάκας)
Αποστολή από: atopos στις Δεκέμβριος 12, 2007, 06:12:24 μμ
Όταν χαράζει - Θ. Παπακωσταντίνου

Λόγια

7-7-7-7-9-2-5-5-5-5-3-2-0-0-5-7-5-3-7-2
------------------------------------------
------------------------------------------

7-7-7-7--9-2-5-5-5-5-3-2-0-0-5-7-5-3-2-0----------
-------------------------------------------3-2-3-2-0
----------------------------------------------------

Ριφ

Πρώτος Τρόπος

7-7-9-10-7-12-7-10-7-5-2-7-7-9-10-  7-7-9-10-7-12-7-10-3-3-7-10-9-10-7
-------------------------------------  -------------------------------------
-------------------------------------  -------------------------------------

Δεύτερος Τρόπος

αυτός ο τρόπος είναι κυρίως για αρχάριους στο μπαγλαμά, που δεν μπορούν να παίξουν σε μεγάλη ταχύτητα στα πιο ψιλά τάστα. Δεν αλλάζει κάτι, απλώς παίζεται μια 8αβα χαμηλότερα απ' το κανονικό.

----------0------------------  -----------0-------------------
0-0-2-3-0-0-3-0----0-0-2-3-  -0-0-2-3-0--0-3-0-----0-3-2-0
-----------------5-2--------- -------------------5-5--------

εννοείτε πως τα κομμάτια μπορείτε να τα παίζεται με δικά σας ανθίσματα γεμίσματα ή να παίζεται ακόρντα σε κάποιες στιγμές, εγώ τα γράφω απλά για να είναι πιο κατανοϊτά, και επίσης επειδή το ίδιο κομμάτι έχει διαφορετική εκτέλεση ανάλογα με τον ερμηνευτή. Σαν να λέμε εγώ γράφω την βάση του τραγουδιού, την γενική σκέψη, δεν πα να πει οτι σε μια ορχήστρα ένας μπουζουκτζής θα έπαιζε απλώς και μόνο ότι γράφω.
Ελπίζω να έγινα κατανοϊτός.


Τίτλος: Πριν το χάραμα (Γιάννης Παπαϊωάννου "Ψηλός" - Οδυσσέας Μοσχονάς "Σαμιώτης")
Αποστολή από: atopos στις Δεκέμβριος 15, 2007, 12:10:59 μμ
Αρχίζω να πιστεύω πως το θέμα δεν ενδιαφέρει κανέναν
αλλά οπλίζωμαι με υπομονή και συνεχίζω ;)

Και ακολουθεί μια απιστευτική τραγουδάρα...

Πριν το χάραμα

Εισαγωγή

0-0-2-3-2-0 3-3-5-7-5-3 12-10-9-8---------7
------------------------------------10-8-10
---------------------------------------------

0-0-2-3-2-0 3-3-5-7-5-3 2-3-5-7-5-3-2-3-0 7-8-7-5-3-2-0
----------------------------------------------------------
----------------------------------------------------------

Λόγια

πριν το χάρα-     -μα μονάχος               εξεκίνησα                                              και στο πρώτο      
0-0-3-2-0         7-5-3-5-3-2-0 7-8-10 12-10-12-8-7 7-8-7--------7-8-7 -----7-8  8-7----7-------  
----------         --------------------   ------------  ------10-8-10-----  8-10      ----10---10-8-7  
----------         --------------------  ------------   -------------------  -------  ----------------

μας το στέκι                      την αυγούλα αντίκρισα                                            και στο πρώτο
7---------------   --------    ----------------7     -----------7----------7-8      8-7---7------  
--10-8-10-8-7-5   8-7-5-4    4-5-7-8-10-8-7--     7-8-7-8-10--8-10-8-10---      ----10-10-8-7  
----------------   --------    -----------------     -------------------------      ---------------

μας το στέκι                     την αυγούλα αντίκρισα
7---------------   --------   ------------------      7-8-7---7------------
--10-8-10-8-7-5   8-7-5-4    4-5-7-8-10-8-7-5       -----10--8-7-5------
----------------  ---------   ------------------      ---------------------



www.youtube.com/watch?v=YwRBzSk0vTU


Τίτλος: Το σακάκι (Ανέστης Δελιάς, "Αρτέμης")
Αποστολή από: kthulu στις Δεκέμβριος 15, 2007, 06:49:38 μμ
Το παρακάτω τραγούδι είναι του Ανέστη Δελία, και είχε κυκλοφορίσει σε κιθάρα από τον Γιώργο Κατσαρό (αν δεν κάνω λάθος). Τα tabs είναι για κιθάρα (ελπίζω να μην σου χαλάω το topic, είναι ρεμπέτικο).

στοίχοι:
Η τύχη μου το έριξε        |να κλέψω ένα σακάκι
------------------------------------------------
----------------1---1-------------------1---1---
----------------0---0-------------------0---0---
--------2-0-----2---2-----------2-0-----2---2---
--0-2-3-----2-3-------3---0-2-3-----2-3-------3-
3-----------------3-----3-----------------3-----

το τράβαγα για πούλημα |μες του καραϊσκάκη
------------------------------------------------
----------------1---1-------------------1---1---
2-0-------------2---2---2-0-------------2---2---
----3-2-0-------2---2-------3-2-0-------2---2---
----------3-2-0---0---------------3-2-0---0-----
------------------------------------------------

ρεφρέν:
------------------------------------
------------------------------------
------------------------------------
2-0-----------0-0-2-0---------------
----3-2-0-2-----------3-2-0-2---0-0-
------------3-----------------3-----



www.youtube.com/watch?v=2Ov44Ca7pyM


Τίτλος: Το πιτσιρικάκι [1] (Γ. Ροβερτάκης/Α. Νικολέσκο - Πρόδρομος Τσαουσάκης)
Αποστολή από: atopos στις Δεκέμβριος 17, 2007, 08:31:41 μμ
Το πιτσιρίκι

Εισαγωγή

-|0|-12-10-8-7- -10-8-7-5- -8-7-5-3-3-3- -|3|-8-7-5-3- -7-5-3-2- -5-3-2-|0|-
-|0|------------ ----------  -------------  -|0|---------  ---------  -------|0|-
---------------- ----------  -------------  -------------  ---------  -----------

Λόγια

 0--0-2-3-3  3-5-3-2-0-0  \
 --3-------   -----------    |<-- παίζεται 2 φορές, με διαφορετικούς στίχους
 ----------   -----------   /

 7-8-7-5-3-3 7-8-7-5-3-3 7-8-7-5-3-3 2-3-2--0-0
 ------------ -----------  ------------ ------3---
 ------------ ------------ ------------ ----------

κθούλου, άμα έχεις κανα άλλο ρεμπέτικο, πιο γνωστό στην κιθάρα, έτσι με τα γυρίσματα κτλ, αν μπορείς βάλτο, με ενδιαφέρει, το συγκεκριμένο δυστηχώς δεν το ξέρω



www.youtube.com/watch?v=AuY1NXugb80


Τίτλος: Ο Μάρκος υπουργός [1] (Μάρκος Βαμβακάρης, "Φράγκος")
Αποστολή από: atopos στις Ιανουάριος 11, 2008, 05:43:39 πμ
λοιπόν το όργανο είναι για επισκευή, αύριο μεθαύριο θα ναι έτοιμο... και λέω να περάσω καμια ταμπλατούρα μιας κι έχει ξεχάσει ένας φίλος το μπουζούκι του σπίτι μου ;D

ΒΑΜΒΑΚΑΡΗΣ 4 LIFE - Ο ΜΑΡΚΟΣ ΥΠΟΥΡΓΟΣ

εισαγωγή

|7|-8-10-12-10-8-10- 10-7-8-10-8-6-7
|8|------------------  ----------------
|10|-----------------  ----------------

λόγια

7-12-7-8-5-7-3-5-2-3-0-2---0-2-3-5-7
---------------------------4----------
--------------------------------------

7-12-7-8-5-7-3-5-2-3-0-2---0----0---0
---------------------------4---0----0--
----------------------------------------

ναι γενικά το τραγούδι είναι απλό αλλά πολύ ωραίο, για περισσότερη βοήθεια κοιτάξτε εδώ, οπού το ερμηνεύη ο γιός του Μάρκου, ο στέλιος Βαμβακάρης...

http://au.youtube.com/watch?v=fFHAw2Q1sgo (http://au.youtube.com/watch?v=fFHAw2Q1sgo)


Τίτλος: Το μινόρε του τεκέ (Ιωάννης Χαλκιάς)
Αποστολή από: havana στις Δεκέμβριος 28, 2008, 12:36:49 πμ
καλησπερα παιδια αν θελετε αυτο ειναι το μινορε του τεκε παιζεται σε ρυθμο 9/4 και δεν εχει λογια. (Τα χτυπηματα που ειναι εντος παρενθέσεως παιζονtai με ένα χτυπημα αντι για δυο -glissando-). καλο παιξιμο!

|0|--6-7-7---7---7-8-7-6-----6-7-8-7-6-----------8-7-8-7-6-7
|0|-----------------------8-------------8---7---5-------------
|0|------------------------------------------------------------


|0|--6-7-7---7---7-8-7-6------6-7-8-7-6---------0-------0-------0
|0|-----------------------8---------------8---7--------0----0----
|0|----------------------------------------------------------------


---------------------------(6-7)------------------------------8-7-8-7-5-7
--(7-8)---8-10-8---7---5------------(7-8)---8-10-8---7---5--------------
------------------------------------------------------------------------


---------------------------(6-7)-------------------------0-------0-----
--(7-8)---8-10-8---7---5-----------(7-8)---8-11-8---7----------0-------0
----------------------------------------------------------------------


---------------------------------------------------------------------------
--4-5-5-5-5-5-5-5-4-5-5-5-5-5-5-5-4---4---4-5-7---4---5---7-8-8-8-8-8-8
---------------------------------------------------------------------------


-------------------------------------------------------------0------0--------
-7-8-8-8-8-8-8-8-7-7-7-7-7---5---4---4-5-7---4---5-----0------0-----------
-----------------------------------------------------------------------------



www.youtube.com/watch?v=JvMLxl4PZKg


Τίτλος: Θεέ μου μεγαλοδύναμε (Αδέσποτο ρεμπέτικο)
Αποστολή από: Thought_Criminal στις Ιούλιος 01, 2009, 08:38:42 μμ
Θα συνεισφέρω κι εγώ με το "Θεε μου μεγαλοδύναμε" ένα από τα καλύτερα ρεμπέτικα το οποίο είναι αγνώστου συνθέτη και από τα πιο παλιά.

Εισαγωγή:

-7-7-7--8-8--7-7-7--8-8--7-7-7--5--3--2-2-2--3--5--7-7-7--8-8--7-7-7--8-8--7-7-7--5--3--2-2-2--3-3--0-0-0-
----------------------------------------------------------------------------------------------------------------
----------------------------------------------------------------------------------------------------------------

-2-2--0-0-0-
-------------
-------------

Στιχοι:

-7-7-7-7-7--8-8--7-7-7-7-7--5-5-5--3--2--3--5--7-7-7-7-7--8-8-8-8-8--10--8--7-7-7-7--5-5-5--3--2--3--5
------------------------------------------------------------------------------------------------------------
------------------------------------------------------------------------------------------------------------

7-7-7-7-7--8-8-8-8-8--10--8--7-7-7-7--5-5-5--3--2--3--2--0-
---------------------------------------------------------------
---------------------------------------------------------------


Η αλλαγή από εισαγωγή σε στίχους γίνεται με:
-2--3--5-
---------
---------



www.youtube.com/watch?v=83wtXxMeRas


Τίτλος: Πέντε μάγκες στον Περαία (Γ. Εϊντζιρίδης, "Γιοβάν Τσαούς" - Αντ. Καλυβόπουλος)
Αποστολή από: Thought_Criminal στις Ιούλιος 01, 2009, 08:55:06 μμ
Άλλο ένα από Γιοβαν Τσαους επίσης κομματάρα το "Πέντε μάγκες στον Περαία"

Εισαγωγή:

-10-12-10--8-10--7-10--8-10-8--7-8--5-8--7-8-7-5--7-3--7-5--0-3-3--0-2-3-2--0-3-5-3--0-5-7-5--8-7-5-7-
-------------------------------------------------------------------------------------------------------------
-------------------------------------------------------------------------------------------------------------

--0-2-3-5-7-5-3-2-3-0-
------------------------
------------------------

Στίχοι:

-0-2-3-5-7-5-3-2-0--0-2-3-5-7-5-7--5-7-8-7-5-3-2-0-2--2-3-5-3-2----0--5-7-8-5--7-8-10-12-10-8-7-5-3-2-3-
---------------------------------------------------------------------4-----------------------------------------
---------------------------------------------------------------------------------------------------------------

--5-7-8-7-5-3-2-0-2--2-3-5-3-2---0-
---------------------------------4---
-------------------------------------



www.youtube.com/watch?v=5pIeV8sJ-N8


Τίτλος: Απ: Παρτιτούρες για Μπαγλαμά Τζουρά 3χορδο μπουζούκι...
Αποστολή από: tsiblinidis στις Ιούλιος 27, 2009, 09:32:14 μμ
Θα μπορούσες να παρουσιάσεις και την "πριγκιπέσα" του Μάλαμα; Ο τρόπος σου δουλεύει! ευχαριστώ! ΥΓ: θα χωρούσε μια υπόδειξη του ρυθμού;


Τίτλος: Απ: Παρτιτούρες για Μπαγλαμά Τζουρά 3χορδο μπουζούκι...
Αποστολή από: ΘΟΔΩΡΗΣ στις Ιούλιος 31, 2009, 08:59:03 μμ
Παιδιά μπράβο κάνετε πολύ καλή δουλειά....

ανεβάστε ότι μπορείτε από Μάλαμα,Θανάση καθώς και την ''υπόγα'' αν είναι ευκολο..

βοηθάτε πολύ!


Τίτλος: Απ: Παρτιτούρες για Μπαγλαμά Τζουρά 3χορδο μπουζούκι...
Αποστολή από: nikkortis στις Αύγουστος 20, 2009, 10:33:17 πμ
μπραβο ρε παιδια ειχα δει πριν κατι μηνες το site και εστειλα mail στον atopos μπας και ανεβασει και αλλα αλλα πανε δυο χρονια απο τοτε που ανοιξε το τοπικ και δεν μου απαντησε στο mail μου. χαιρομαι ιδιαιτερα τωρα που ο  Thought_Criminal εβαλε ενα απο τα αγαπημενα μου τραγουδια το Πεντε μαγκες στον Περαια αλλα και το Θεε μου μεγαλοδύναμε που ειναι γαματο.... φιλε περημενουμε και αλλα με αγωνια.... αυτα που ζηταει ο ΘΟΔΩΡΗΣ τα σπανε... υπογα και Θαναση Παπακωνσταντινου.....αντε φτιαξε μας


Τίτλος: Στην υπόγα (Κώστας Μπέζος, "Α. Κωστής")
Αποστολή από: abdnm στις Αύγουστος 20, 2009, 04:00:31 μμ
Η υπόγα

----0-2-3-4-4-3-3-2-0-2-3-3----2-3-4-7-4-4-3-3-2-0-2-3-3---
---3-----------------------------------------------------------------
---------------------------------------------------------------------

3-3-3-4-3---2-2-3-4-3-2-2-2-0-(3-4)--3-2--0------------------
---------------------------------------------------------------------
---------------------------------------------------------------------

--0-2-3-4-4-3-3-2-2--0-0---------------------------------------
-3----------------------3------------------------------------------
--------------------------------------------------------------------

---10-8-10-7-7-7-8-7-4-3-3-2-(9-10)-- 10-8-10-7-7-7-8-7-4-3-3-2-(3-4)-3
------------------------------------------------------------------------------------
------------------------------------------------------------------------------------

10-8-10-7-7-7-8-7-4-3-3-2-(3-4)-3----------------------------------------
--------------------------------------------------------------------------------
--------------------------------------------------------------------------------

2-2-3-4-3-2-2-3-4-3-2-2-2-0-(3-4)-3-2-0-----0-2-3-4-4-3-3-2-2--0-0---
--------------------------------------------------3-------------------3---------
---------------------------------------------------------------------------------



www.youtube.com/watch?v=i-sxRU7nnO0


Τίτλος: Απ: Παρτιτούρες για Μπαγλαμά Τζουρά 3χορδο μπουζούκι...
Αποστολή από: ΘΟΔΩΡΗΣ στις Αύγουστος 20, 2009, 06:32:26 μμ
Ωραίος φίλε abdnm με την υπόγα ευχαριστούμε!!.....αν και νομίζω ότι χάνεις (ή χάνω εγώ) λίγο την εισαγωγή..απο το 10--8--10 κτλ είναι??είχα την εντύπωση ότι πατάει από το 12..επίσης οι παρενθέσεις τι είναι που χρησιμοποιείς??

λέω να συνεισφέρω και γω με μερικά κομματάκια από κάτω..αντε να το γεμίζουμε σιγά σιγά!


Τίτλος: Πριγκηπέσα (Σωκράτης Μάλαμας)
Αποστολή από: ΘΟΔΩΡΗΣ στις Αύγουστος 20, 2009, 06:49:14 μμ
Η ''πριγκηπέσσα΄'' που ζητήθηκε ακολουθεί παρακάτω..γενικά εγώ θα ανεβάζω ταμπλατούρες όλη σε μία γραμμή απλά χωρίς παρένθεση θα είναι τα τάστα της κάτω λεπτής χορδής ,με μία παρένθεση (  ) της δεύτερης χορδής και δύο παρενθέσεις ((  )) της τρίτης!

Εισαγωγή πριγκηπέσσα¨

--7--9--9—10—9—10—9—7—9—7—9—5—7—9—9—10—9—10—9—7—9—7—9—5—7—7—9—7—9—7—5—7—5—7—3—7—7—9—7—9—7—5—7—3—5—2—7—9--9—10—9—10—9—7—9—7—9—5—7—9—9—10—9—10—9—7—9—7—9—5—7—7—9—7—9—7—5—7—5—7—3—7—7—9—7—9—7—5—7—3—5—2—2—2—3—2—5—2—3—2—5—2—2—2—2—3—2—5—2—5—7—5—3—2

κύριο θέμα μέχρι ρεφρέν

--0—2—2—2—2—2—2—2--(5—3—2—3—0)—(0—2—3—5)—(5—3—5)—2—(5—3—2—0)—((0—1—2—3—2))—0—2—2—2—2—2—2—2—3—5—2—3—5—7—7—7—7—5—7—9—5—3—2—3—3—2—3—5—7—3—2
(μετά εισαγωγή πάλι και μετά ρεφρέν)



www.youtube.com/watch?v=_9qvimjTG_0


Τίτλος: Όσοι έχουνε πολλά λεφτά (Μάρκος Βαμβακάρης)
Αποστολή από: ΘΟΔΩΡΗΣ στις Αύγουστος 20, 2009, 06:59:42 μμ
Και 1 Βαμβακάρης προς το παρόν το 'όσοι έχουνε πολλά λεφτά'.

1) Όσοι έχουνε πολλά λεφτά

Πρώτο μέρος
12--11--12--14--16--12--14--11--12--9--9--7--6--7--12--12--12--12--12 (x2)

Δεύτερο μέρος
4--5--6--7--7--4--4--5--4--2--0--(4--3--4--5)
(5--4--5)--2--4--4--4--4--2--0--(4--3--4--5)    (x2)



www.youtube.com/watch?v=8bmJBCs6j6w


Τίτλος: Απ: Παρτιτούρες για Μπαγλαμά Τζουρά 3χορδο μπουζούκι...
Αποστολή από: ΘΟΔΩΡΗΣ στις Αύγουστος 20, 2009, 07:11:50 μμ
Γενικά λέω να κάνω μία  μικρή λίστα με κομμάτια που θα ήθελα να γραφτούνε εδώ ώστε αν ο abdnm ή οπποιοσδήποτε άλλος τα έχουν βγάλει ή μπορούν να τα βγάλουν να τα παραθέτουμε εδώ και για όλους τους υπόλοιπους..


1) 'Πινόκλης' - παλιό ρεμπέτικο
2) 'Γυφτοπούλα στο χαμάμ' - Μπάτης
3) 'Μαγικό μελαχροινό' - Βαμβακάρης
4) 'Τρία ρουμπαγιάτ' (εισαγωγή κυρίως) - Θανάσης
5) 'Είναι σκοτάδι μάτια μου' - Μάλαμας

μία καλή εκτέλεση του 'Πινόκλη' που ίσως βοηθήσει είναι εδώ από Θανάση.

http://www.youtube.com/watch?v=Uip7uRP6-hY


ευχαριστώ,θα επανέλθω αργότερα με μερικά άλλα από Βαμβακάρη καθώς και τα 'τσιγάρο ατέλειωτο' και 'παλιά πληγή' των Μάλαμα και Θανάση που τα ψιλοπαλεύω τώρα..


Τίτλος: Απ: Παρτιτούρες για Μπαγλαμά Τζουρά 3χορδο μπουζούκι...
Αποστολή από: abdnm στις Αύγουστος 20, 2009, 07:54:26 μμ
Ωραίος φίλε abdnm με την υπόγα ευχαριστούμε!!.....αν και νομίζω ότι χάνεις (ή χάνω εγώ) λίγο την εισαγωγή..απο το 10--8--10 κτλ είναι??είχα την εντύπωση ότι πατάει από το 12..επίσης οι παρενθέσεις τι είναι που χρησιμοποιείς??

λέω να συνεισφέρω και γω με μερικά κομματάκια από κάτω..αντε να το γεμίζουμε σιγά σιγά!

Φίλε στην "Υπόγα" μπορείς στην εισαγωγή να βάλεις και τη -12- στην αρχή...εξάλλου το κομμάτι με κιθάρα ηχογραφήθηκε πρώτη φορά...με τρίχορδο ποικίλλουν οι εκτελέσεις.
και γενικά ας πούμε ότι οι ταμπλατούρες είναι κάτι σαν οδηγός..δηλαδή ο καθένας βάζει την προσωπική του πενιά σε κάποια σημεία.

όσο για την παρένθεση που χρησιμοποιώ, σημαίνει ότι τις νότες που βρίσκονται μέσα στην παρένθεση τις παίζεις σαν μία, δηλ. με γλίστρημα.

ωραίος με το "όσοι έχουν πολλά λεφτά"
μέσα για τα υπόλοιπα..

Όποιος μας ποστάρει το "γυφτοπούλα στο χαμάμ" RESPECT!!!!


Τίτλος: Απ: Παρτιτούρες για Μπαγλαμά Τζουρά 3χορδο μπουζούκι...
Αποστολή από: nikkortis στις Αύγουστος 24, 2009, 06:57:24 μμ
παμε παιδια γερα... τα σπατε... ανεβαστε και αλλα περιμενω πως και πως.....

1.πρεζα οταν πιεις

http://www.youtube.com/watch?v=6lnDciVgCek


2.φερτε πρεζα να πρεζαρω

http://www.youtube.com/watch?v=n0u1zeKR_f4

τα σπανε αυτα τα δυο ρε παιδια... και κυριως το δευτερο που εχω βαλει... ανεβαστε ρε παιδια να χαρουμε και εμεις......  ;D


Τίτλος: Καίγομαι καίγομαι [1] (Σταύρος Ξαρχάκος - Σωτηρία Λεονάρδου)
Αποστολή από: Thought_Criminal στις Σεπτέμβριος 02, 2009, 10:44:12 μμ
Καίγομαι καίγομαι
από την ταινία Ρεμπέτικο του Κώστα Φέρρη σε μουσική Ξαρχάκου

Η εισαγωγή παίζεται όσες φορές θέλει ο καθένας ειδικά αν ρίχνει και αμανέδες...

-0-0-0----0-------0-
-0---0----0-3-2-3---
-0---0----0---------

στο (ε) μπαίνει η εισαγωγή χωρίς τα τρία πρώτα 0

----0-2-3-2-3-4-3--        ---0-2-3-2-7-4-3-2-0--
--3-----------------  (ε)  -3---------------------
--------------------        -----------------------

ρεφρέν

4-4-3-2-2-0--0---0-2-3-4-3-2-3--4-4-3-2-2-0--0---0-2-3-4-3-2-0-
----------------3--------------------------------3-----------------  (ε)  και το ρεφρέν ξανά
-------------------------------------------------------------------

ελπίζω να έγινα κατατοπιστικός  :P
αν υπάρχει και 2ο όργανο μπορεί να παίζει το ρεφρέν συνέχεια και πατάει πάνω στο (ε) οπότε συγχρονίζεστε κιόλας
πάνω κάτω η ίδια μελωδία είναι και "το πρακτορείο" από την ίδια ταινία...



www.youtube.com/watch?v=aXJQmTSptCc


Τίτλος: Απ: Παρτιτούρες για Μπαγλαμά Τζουρά 3χορδο μπουζούκι...
Αποστολή από: ΘΟΔΩΡΗΣ στις Σεπτέμβριος 02, 2009, 11:09:00 μμ
Ωραίος αδερφέ μου...!!!!

Άντε τώρα και το 'παράτα τα' του Άσιμου που το έχεις αφήσει στη μέση.....  ;)

εγώ έχω μαζέψει μερικά να ανεβάσω...απλά το θέμα είναι ότι τα πιο πολλά τα παίζω μαζί με ένα παιδί πού παίζει κιθάρα και σε πολλά είναι μόνο θεματάκια στο μπουζούκι και η κιθάρα παίζει το τραγούδι (πχ το 'τρια ρουμπαγιάτ' του Θανάση...αν σας ενδιαφέρει τ' ανεβάζω και γράφω και πώς παει από πίσω στην κιθάρα..)


Τίτλος: Απ: Παρτιτούρες για Μπαγλαμά Τζουρά 3χορδο μπουζούκι...
Αποστολή από: nikkortis στις Σεπτέμβριος 03, 2009, 06:08:30 μμ
αντε ρε παιδια... ανεβαστε οτι μπορειτε.... ετσι μαθαινουμε και εμεις!!!! απο εδω μεσα... τα σπατεεεεεεεεε παμε γερα... ολα οσα ανεβαζετε ειναι ενα και ενα.... περιμενουμε και αλλα


Τίτλος: Μπουζούκι μου διπλόχορδο [1] (Μάρκος Βαμβακάρης & Στράτος Παγιουμτζής)
Αποστολή από: ΘΟΔΩΡΗΣ στις Σεπτέμβριος 04, 2009, 03:01:41 πμ
''Mπουζούκι μου διπλόχορδο'' - Βαμβακάρης,  σε {  } οι συγχορδίες και ( ) στη Λα όπως και τα παραπάνω δικά μου.

{0,0,0},0,4,1,4,1,0,1,0,1,(3),0,0,0,0,7,7,7,7,7,7,7,7,7
{0,0,0},0,4,1,4,1,0,1,0,1,(3),0,0,0,(0),0,(0),0,(0),0 x2 (Εισαγωγή)

5,5,4,5,7,8,7,10,8,7,5,4,5,{0,5,7},{0,5,7} Λόγια
5,5,4,5,7,8,7,10,8,7,5,4,1,0,0,0,0,0
0,1,0,(3),(2),(3),(2),0,1,5,4,1,1,0,0,0,0,0,0
0,1,0,(3),(2),(3),(2),0,1,5,4,1,1,0,0,(0),0,(0),0,{0,0,0,}



www.youtube.com/watch?v=FCLMvEJYJCI


Τίτλος: Αλανιάρης (Μάρκος Βαμβακάρης, "Φράγκος")
Αποστολή από: ΘΟΔΩΡΗΣ στις Σεπτέμβριος 04, 2009, 03:08:10 πμ
Και πάλι βαμβακάρης,''Αλανιάρης''

A Μέρος  
7 6 7 9 10 7 9 5 4 5 3 4 0 7 6 9 7
7 6 7 9 10 7 9 5 4 5 3 4 0  (Χ2)

B Μέρος
12 10 14 12 10 9 7 6 7 4 5 6 7 7
10 12 10 14 12 10 9 7 6 7 5 4 3 0  (Χ2)



www.youtube.com/watch?v=azozKyjFIDg


Τίτλος: Απ: Παρτιτούρες για Μπαγλαμά Τζουρά 3χορδο μπουζούκι...
Αποστολή από: ΘΟΔΩΡΗΣ στις Σεπτέμβριος 04, 2009, 03:10:13 πμ
Με αυτόν τον 'Πινόκλη' βγάζει κανείς άκρη???  >:(


Τίτλος: Απ: Παρτιτούρες για Μπαγλαμά Τζουρά 3χορδο μπουζούκι...
Αποστολή από: nikkortis στις Σεπτέμβριος 06, 2009, 03:39:50 πμ
Με αυτόν τον 'Πινόκλη' βγάζει κανείς άκρη???  >:(
Ελληνοαμερικανική λέξη, παρατσούκλι για κάποιον που παίζει πολύ "Pinocle" (χαρτιά)
Ο Πινόκλης 1928
Στ., μουσ.: Δημοσθ. Ζάττα
Ερμηνεία: Γ. Ιωαννίδης

Κει στον Πειραιά γεννήθηκα και τ' όνομά μου ειν' Τσόκλης   ] 2x
μα το ξαναβαφτίστηκα και γίνηκα Πινόκλης   ] 2x
 
Κει στον Πειραιά καθόμουνα κει βρε στο Πασαλιμάνι   ] 2x
μα στο Νιου Γιόρκι κάθομαι στο Μάντισον Σεϊντάνι   ] 2x
 
Και ξερτέ βρε Αρκαντάσηδες πώς μπερδεύτηκεν ο κόμπος   ] 2x
γιατί την ανακάλυψε αυτή τη γη ο Κολόμπος   ] 2x

μακαρι να το βρουμε αυτο το τραγουδι που το εχει πει και ο Θανασης (Παπακωνσταντινου) http://www.youtube.com/watch?v=OMA4eE9gqmw τα σπαει!!!

ανεβαστε παιδια... ειστε πολυ μπροστα....


Τίτλος: Απ: Παρτιτούρες για Μπαγλαμά Τζουρά 3χορδο μπουζούκι...
Αποστολή από: abdnm στις Σεπτέμβριος 06, 2009, 01:09:09 μμ
Ακούστε τον "Πινόκλη" αυθεντική εκτέλεση, με το Γ. Ιωαννίδη...

http://www.youtube.com/watch?v=P5EUtyVGvBw&feature=related (http://www.youtube.com/watch?v=P5EUtyVGvBw&feature=related)

έχει και σφυρίγματα μέσα και από όλα...


Τίτλος: Απ: Παρτιτούρες για Μπαγλαμά Τζουρά 3χορδο μπουζούκι...
Αποστολή από: ΘΟΔΩΡΗΣ στις Σεπτέμβριος 06, 2009, 02:03:47 μμ
abdnm έχεις δοκιμάσει να το βγάλεις???


Τίτλος: Πού 'σουν μάγκα το χειμώνα (Γιώργος Μουφλουζέλης)
Αποστολή από: nikkortis στις Σεπτέμβριος 06, 2009, 05:21:07 μμ
και ετσι οπως το παιζει ο Θανασης δεν μας χαλαει.... οτι εχετε και μπορει ανεβαστε το......

να ανεβασω και εγω ενα.... Που εισουν μαγκα τον χειμωνα.

Εισαγωγη
0-1-3-5-7-0-7-0-7-8-5-8-7-5-3-1-0--0-1-3-5-7-8-10-12-10-8-7-8-5-5-5
0 ----------------------------------- 0---------------------------------
0------------------------------------ 0 ----------------------------------


3-3-0-1-1-0-3-3-1-0-1-3-5-7--3-3-0-1-1-0-3-3-1-0
0------------------------------0------------------
0------------------------------------------------

Λογια
5-7-7-7-9-10-9-10-9-7-5-7-7-7-9-10-9-12-12--5-3-5-7-3-1-0-7-5-3-5-7-3-1-0
-------------------------------------------------------------------------------
-------------------------------------------------------------------------------

ελπιζω να ειναι οκ και να σας αρεσει. ανεβαστε παιδιαααααααααααα να εχουμε πραμα!!!!



www.youtube.com/watch?v=lxaYZTUDvbM


Τίτλος: Απ: Παρτιτούρες για Μπαγλαμά Τζουρά 3χορδο μπουζούκι...
Αποστολή από: Isouljah στις Σεπτέμβριος 07, 2009, 01:42:16 μμ
Παιδιά για τη Γυφτοπούλα του Μπάτη παίζει εδώ

http://rebetiko.sealabs.net/wiki/mediawiki/index.php/%CE%93%CF%85%CF%86%CF%84%CE%BF%CF%80%CE%BF%CF%8D%CE%BB%CE%B1 (http://rebetiko.sealabs.net/wiki/mediawiki/index.php/%CE%93%CF%85%CF%86%CF%84%CE%BF%CF%80%CE%BF%CF%8D%CE%BB%CE%B1)

αν μπορεί κάποιος να το κάνει ταμπλατούρα.....


Τίτλος: Απ: Παρτιτούρες για Μπαγλαμά Τζουρά 3χορδο μπουζούκι...
Αποστολή από: Snake στις Σεπτέμβριος 09, 2009, 05:11:11 μμ
Ευχαριστω πολυ ρε παιδια!!!!! Δε βρισκεις ευκολα ταμπλατουρες για τα οργανακια μας!
Εσεις που το κατεχετε αν μπορειτε βαλτε κ αλλα του Μαρκου και της Τετραδας γενικοτερα.  Για μας τους αρχαριους ειναι πολυ μεγαλη βοηθεια!!!!Ευχαριστω πολυ!!!!


Τίτλος: Απ: Παρτιτούρες για Μπαγλαμά Τζουρά 3χορδο μπουζούκι...
Αποστολή από: Snake στις Σεπτέμβριος 09, 2009, 05:16:21 μμ
http://aromata.pblogs.gr/2009/02/rempetika-tragoydia-gia-mpoyzoyki-1-2.html

Ριξτε μια ματια παιδες υπαρχει πολυ πραμα!


Τίτλος: Απ: Παρτιτούρες για Μπαγλαμά Τζουρά 3χορδο μπουζούκι...
Αποστολή από: tsiblinidis στις Σεπτέμβριος 09, 2009, 05:47:33 μμ
Ευχαριστώ τον ΘΟΔΩΡΗ για την πριγκιπέσσα. Και η συνέχεια ήταν εξαιρετική! Μπράβο σε όλους!


Τίτλος: Απ: Παρτιτούρες για Μπαγλαμά Τζουρά 3χορδο μπουζούκι...
Αποστολή από: ΘΟΔΩΡΗΣ στις Σεπτέμβριος 11, 2009, 12:00:49 μμ
Παιδιά όντως στο λινκ που έχει βάλει ο isuljah από πάνω έχει μέσα και τον 'θερμαστή' και τη 'γυφτοπούλα' του Μπάτη πολύ καλά ανεβασμένα.....κάποιος που ξέρει νότες ας κάνει τον κόπο να μας τα μετατρέψει σε ταμπλατούρες εδώ μιας που είναι έτοιμα εκεί σε παρτιτούρες...


Τίτλος: Απ: Παρτιτούρες για Μπαγλαμά Τζουρά 3χορδο μπουζούκι...
Αποστολή από: nikkortis στις Σεπτέμβριος 11, 2009, 04:40:20 μμ
το θεμα ειναι ταμπλατουρες γιατι για εμας που δεν ξερουμε νοτες και ειμαστε και αρχαριοι ειναι θησαυρος  ;D

http://www.youtube.com/watch?v=3utA16rIvdw    σε γελασανε θα μας το δειξει καποιος....????  ;D αντε ρε παιδες... ειστε ωραια... ανεβαστε....


Τίτλος: Απ: Παρτιτούρες για Μπαγλαμά Τζουρά 3χορδο μπουζούκι...
Αποστολή από: abdnm στις Σεπτέμβριος 12, 2009, 06:04:00 μμ
Λίγη υπομονή μάγκες, έρχεται "Ο ΘΕΡΜΑΣΤΗΣ"....


Τίτλος: Ο θερμαστής (Γιώργος Μπάτης)
Αποστολή από: abdnm στις Σεπτέμβριος 12, 2009, 07:06:44 μμ
Ο ΘΕΡΜΑΣΤΗΣ


-12-11-12-14-12-10-10-9-10-7-9-6-7-9-10-11-12-12--
------------------------------------------------------
------------------------------------------------------

-12-11-12-14-12-10-10-9-10-9-7-6-7-7-7-7-7---------
-------------------------------------------------------
-------------------------------------------------------

-7-6-7-6-3-2-0-2-3-2-0-0-2-3-6-7---7-6-7-6-3-2-0-2-3-2-0-0----0---0-
------------------------4-----------------------------------4----0---0----
---------------------------------------------------------------------------

(όλο το προηγούμενο, x2)

Λόγια

-3-3-3-6-6-7-6-3-6-7--3-3-3-6-6-7-6-3-2-0--0--0----
---------------------------------------------0--0-----
------------------------------------------------------


-3-3-3-6-6-7-6-3-6-7--3-3-3-6-6-7-6-3-2-0--0--0----
---------------------------------------------0--0-----
------------------------------------------------------



www.youtube.com/watch?v=YAl9FRTwauo


Τίτλος: Απ: Παρτιτούρες για Μπαγλαμά Τζουρά 3χορδο μπουζούκι...
Αποστολή από: Snake στις Σεπτέμβριος 12, 2009, 07:56:11 μμ
Γεια σου abdnm με τα τραγουδακια σου τα ομορφα!!!!


Τίτλος: Απ: Παρτιτούρες για Μπαγλαμά Τζουρά 3χορδο μπουζούκι...
Αποστολή από: nikkortis στις Σεπτέμβριος 13, 2009, 05:12:08 μμ
abdnm μπραβο ρε φιλε να εισαι καλα. περιμενουμε και πινοκλη και γενικοτερα και αλλα πολλα....


Τίτλος: Αντιλαλούν οι φυλακές [1] (Μάρκος Βαμβακάρης, "Φράγκος")
Αποστολή από: Snake στις Σεπτέμβριος 14, 2009, 06:19:04 μμ
Αντιλαλουν οι Φυλακες

0, 0, 2, 2, 4, 4, 5, 5 ,5, 5, 5, 5, 5, 5, 5 ,0 ,0, 2, 2, 4, 4 ,5, 5, 5, 5, 5, 5, 5, 5, 5,

5, 4, 2, 4 ,0 ,2, 2, 0, 5, 4, 0, 2, 2, 0, 5 ,4, 2, 4 ,0, 2, 2 ,0, 5, 4, 0, 2, 2 ,0,

0, 0, 2, 2, 4, 4, 5, 5 ,5, 5, 5, 5, 5, 5, 5 ,0 ,0, 2, 2, 4, 4 ,5, 5, 5, 5, 5, 5, 5, 5, 5,

5, 4, 2, 4 ,0 ,2, 2, 0, 5, 4, 0, 2, 2, 0, 5 ,4, 2, 4 ,0, 2, 2 ,0, 5, 4, 0, 2, 2 ,0,

5, 7, 9, 9, 7 ,11, 11, 9, 12, 9, 9, 11, 11, 7, 9, (10, 10), 7 , 4, 5, 5, 5, 5, 5, 7, 9, 9 ,7, 11, 11, 9, 12, 9, 9 ,11, 11 ,7, 9, 5, 5, 7, 7 ,4 ,5, 5 ,5, 5,

5, 4, 2, 4, 0 ,2, 2, 0 ,5 ,4, 0 ,2, 2, 0 ,5, 4, 2, 4, 0 ,2, 2 ,0, 5, 4 ,0, 2



www.youtube.com/watch?v=bxcpVcYdYsw


Τίτλος: Απ: Παρτιτούρες για Μπαγλαμά Τζουρά 3χορδο μπουζούκι...
Αποστολή από: punkpagour στις Σεπτέμβριος 14, 2009, 07:21:09 μμ
Μάγγες συχαρητήρια το πόστ έχει γράψει τρελά...
Μόνο που θα ήθελα μία χάρη άν μπορεί κάποιος να βάλει το νόστιμο τρελό μικρό μου από τον μεγάλο Μάρκο...


Τίτλος: Απ: Παρτιτούρες για Μπαγλαμά Τζουρά 3χορδο μπουζούκι...
Αποστολή από: ΘΟΔΩΡΗΣ στις Σεπτέμβριος 15, 2009, 07:07:57 μμ
Σωστά το ξεχάσαμε το 'μαγικό μελαχροινό'...άντε ριχνόμαστε στη δουλειά.. :)


Τίτλος: Ρίξε τσιγγάνα τα χαρτιά (Μάρκος Βαμβακάρης)
Αποστολή από: ΘΟΔΩΡΗΣ στις Σεπτέμβριος 15, 2009, 07:13:11 μμ
Εδώ και το 'ρίξε τσιγγάνα τα χαρτιά' από Μάρκο.

Πρώτο μέρος
(2) 0 (4) 2 0 3 2 3 6 3 2 0 0(4 3 2) 4
(2) 0 (4) 2 0 3 2 3 6 3 2 0 0(4 3 2 2)

το ίδιο με μία οκτάβα πάνω
9 12 11 14 12 15 14 15 18 15 14 12 12 11 10 9 16
9 12 11 14 12 15 14 15 18 15 14 12 12 11 10 9 9

Β Μέρος λόγια
8 9 9 8 5 4 3 4 0 (4 2 2) 3 4 5 8 9
8 9 11 9 8 5 4 0 ( 4 2 2) 3H4 3H4 5 4 3 5 4

Γ Μέρος (λόγια 2x):
3 4 5 5 4 5 9 8 5 4 5 4 3 4 3 4 5 4 3 0 0
3 4 5 8 9 5 4-5-4 4 3-4-3 3 4 5 4 3 0 3 0 (4 2)



www.youtube.com/watch?v=UbY7_BroP1Q


Τίτλος: Απ: Παρτιτούρες για Μπαγλαμά Τζουρά 3χορδο μπουζούκι...
Αποστολή από: punkpagour στις Σεπτέμβριος 15, 2009, 11:50:38 μμ
Εισαγωγή:

F,A#,A,Gm,Dm,A,Dm,A,Dm
 
Dm                                   A
Κάνω τη τσάρκα μου, περνώ, για σε μικρό μελαχρινό
  Gm            Dm
από τη γειτονιά σου
Dm
για τα γλυκά τα μάτια σου
      D          Gm
και για την εμορφιά σου
Dm
για τα γλυκά τα μάτια σου
      A          Dm A Dm
και για την εμορφιά σου
      Gm                     A          Dm
Νόστιμο τρελό μικρό μου, μάγκικο μελαχρινό μου

Δυστηχώς μόνο οι συγχορδίες,άν μπορεί κάποιος να βγάλει την μελωδία θα είναι πολύ τζέτ.


Τίτλος: Απ: Παρτιτούρες για Μπαγλαμά Τζουρά 3χορδο μπουζούκι...
Αποστολή από: ΘΟΔΩΡΗΣ στις Σεπτέμβριος 16, 2009, 01:43:40 πμ
και δω μία πολύ ωραία εκτέλεση του Σωκράτη αν και ξεχνά μερικά στιχάκια...
http://www.youtube.com/watch?v=nJj-zwRyovc&feature=related

νέος στόχος το μελαχροινό ανεβάστε το όποιος το μπορέσει κάπως..θα το παιδέψω και γω..


Τίτλος: Απ: Παρτιτούρες για Μπαγλαμά Τζουρά 3χορδο μπουζούκι...
Αποστολή από: abdnm στις Σεπτέμβριος 17, 2009, 09:50:28 μμ
Μάγκες ο "Πινόκλης" ψήνεται...
έχει και πολύ μελωδία το άτιμο


Τίτλος: Απ: Παρτιτούρες για Μπαγλαμά Τζουρά 3χορδο μπουζούκι...
Αποστολή από: ΘΟΔΩΡΗΣ στις Σεπτέμβριος 18, 2009, 04:40:32 πμ
Έλα ρε abdnm ωραίος!!

Άντε όταν ψηθεί καλά περιμένουμε σερβίρισμα....  ;)


Τίτλος: Απ: Παρτιτούρες για Μπαγλαμά Τζουρά 3χορδο μπουζούκι...
Αποστολή από: nikkortis στις Σεπτέμβριος 18, 2009, 10:52:01 πμ
abdnm τι λες τωρα ρε φιλε... το περιμενουμε πως και πως.... οταν βρηκα αυτο το φορουμ και το συγκεκριμενο τοπικ δεν περιμενα οτι θα εχουμε τετοια αποτελεσματα  ;D πινοκλη ρε φιλε????? αυτα ειναι!!!!!!!!

ΘΟΔΩΡΗ στο ρίξε τσιγγάνα τα χαρτιά εκει που λες 3Η4 τι ειναι το Η ?


Τίτλος: Σε γελάσανε (Κώστας Σκαρβέλης, "Παστουρμάς" - Στρ. Παγιουμτζής & Μ. Βαμβακάρης)
Αποστολή από: nikkortis στις Σεπτέμβριος 18, 2009, 12:55:20 μμ
Σε γελασανε.....

-7-12-7-8-5-7-3-5-2-3-2-3-5-8-7---7-12-7-8-5-7-3-5-2-3-3-2-3-2-0
----------------------------------------------------------------
----------------------------------------------------------------

R
-7-7-8-8-10--7-8-7-8-10-8-7--7-7-5-3-2-2-3-5-3-2-3-5-7
----------------------------------------------------------
----------------------------------------------------------

-7-7-8-8-10--7-8-7-8-10-8-7--7-7-5-3-2-2-3-5-3-2-3-2-0
----------------------------------------------------------
----------------------------------------------------------

Κατάλαβα την γνώμη σου και τι καπνό φουμάρεις
το δόλιο πορτοφόλι μου ζητάς να μου το πάρεις

Σε γελάσανε μην χάνεις τον καιρό σου  
Δεν σε σπούδασε καλά ο δάσκαλός σου   ] 2x
 
Δεν έμαθες τα δίχτυα σου μικρή μου να τ’ απλώνεις
Νομίζεις τον καθένανε μπορείς να τον γαντζώνεις
 
Σε γελάσανε...
 
Δεν τα λυπάμαι τα λεφτά ούτε και με πονάνε
Να ξέρεις μόνο τα χαλώ εκεί που μ’ αγαπάνε
 
Σε γελάσανε...



www.youtube.com/watch?v=1MxeNpx-ILw


Τίτλος: Απ: Παρτιτούρες για Μπαγλαμά Τζουρά 3χορδο μπουζούκι...
Αποστολή από: ΘΟΔΩΡΗΣ στις Σεπτέμβριος 18, 2009, 03:16:08 μμ
Το Η είναι το λεγόμενο 'hammer'..δηλαδή το 3Η4 είναι ότι χτυπάς τη χορδή πατώντας τρίτο τάστο και όσο πάλλεται η χορδή κι ο ηχος πατάς κατευθέιαν το 4ο δίπλα σέρνοντας το δάχτυλο σου χωρίς όμως να χαναβαρέσεις τη χορδή!Δηλαδή με ένα χτύπημα χορδής πατάς 2 τάστα γρήγορα..ελπίζω να έγινα κατανοητός.


Τίτλος: Γυφτοπούλα στο χαμάμ [1] (Γιώργος Μπάτης, "Αμπάτης")
Αποστολή από: ΘΟΔΩΡΗΣ στις Σεπτέμβριος 18, 2009, 03:20:57 μμ
Τη γυφτοπούλα δεν βάλαμε ακόμα ε..?Δοκιμάστε την έτσι με διορθώσεις του καθενός όπου νομίζει...

''Γυφτοπούλα στο χαμάμ''

2Η3 3 3 2Η3 3 3 2Η3 3 3 3 5 2 3 0 (3) 0 2Η3 0 3 2 0 2 3 2 0 2 0

2Η3 3 3 2Η3 3 3 2Η3 3 3 3 5 2 3 0 (3) 0 2Η3 0 3 2 0 2 0

5 7 7 5 7 7 5 7 7 5 7 7 (γεμισμα)

7 7 8 10 12 7 5 3 (γυφτοπούλα στο χαμαμ)

2 5 3 2 0 2 3 5 (κι εγω πληρώνω ντιρνταμαμ)

3Η5 5 5 3Η5 5 5 3Η5 5 5 3Η5 5 5 (γεμισμα)

7 7 8 10 12 7 5 3 2 (όσα όσα τα πλερώνω)

5 3 2 0 2 3 5 0 (να σε βλέπω ντιρνταμαμ)

(3)Η(5) (5) (5) (3)Η(5) (5) (5) (3)Η(5) (5) (5) (5) (3) (5) 2 3 (γεμισμα)

Ρεφρέν
3 και (3) μαζί (τόσες φορές όσο και οι συλλαβές του να χα-ρεις την ε-μορ-φια –α )
2 και (3) μαζί ( σου, την πο-διά σου τη χρύ-)
3 και (3) μαζί (ση- η- η )

3 και (3) μαζί (α-ξε-καλ-τσω-τη γυ-ρί-ι-)
2 και (3) μαζί (ζεις , γυ-φτο-πού-)
5 3 2 0 0 λα μου εσυ



www.youtube.com/watch?v=Gfrdm_ros7U


Τίτλος: Απ: Παρτιτούρες για Μπαγλαμά Τζουρά 3χορδο μπουζούκι...
Αποστολή από: abdnm στις Σεπτέμβριος 18, 2009, 06:27:33 μμ
Το Η είναι το λεγόμενο 'hammer'..δηλαδή το 3Η4 είναι ότι χτυπάς τη χορδή πατώντας τρίτο τάστο και όσο πάλλεται η χορδή κι ο ηχος πατάς κατευθέιαν το 4ο δίπλα σέρνοντας το δάχτυλο σου χωρίς όμως να χαναβαρέσεις τη χορδή!Δηλαδή με ένα χτύπημα χορδής πατάς 2 τάστα γρήγορα..ελπίζω να έγινα κατανοητός.

αυτό εγώ το ξέρω ως glissanto... το ίδιο είναι μάλλον..ή το hammer είναι πιο δυνατά?

Μπράβο ρε Θοδωρή για τη Γυφτοπούλα στο Χαμάμ!!! πως και πως το περιμέναμε..

"μας κάναν οι γυφτοπούλες χάλια αδερφέ μου"


Τίτλος: Απ: Παρτιτούρες για Μπαγλαμά Τζουρά 3χορδο μπουζούκι...
Αποστολή από: ΘΟΔΩΡΗΣ στις Σεπτέμβριος 18, 2009, 06:46:54 μμ
Τα ξέρω το ''h'' hammer on και το ''p'' pull off νομίζω.Το ίδιο πρέπει να είναι με αυτό που λες αλλά από μουσικές ορολογίες μη με ρωτάς δεν το κατέχω το άθλημα...από κιθάρα πέρασα λίγο σε μπουζούκι με αυτί επειδή παίζουμε μερικά οργανάκια μαζί..από θεωρίες και νότες είμαι άσχετος.  :)

(έλα ψήνε πινόκλη!!).Δες και αυτό το βιντεάκι του Θανάση ίσως σου δώσει ιδέες.

http://www.youtube.com/watch?v=OMA4eE9gqmw


Τίτλος: Ο Πινόκλης (Δημοσθένης Ζάττας - Γιάννης Ιωαννίδης)
Αποστολή από: abdnm στις Σεπτέμβριος 18, 2009, 10:27:03 μμ
O ΠΙΝΟΚΛΗΣ  

(με την εκτέλεση του Θ. Παπακων/νου, η αυθεντική είναι ένα τόνο πιο πάνω)


-5-4-2-4-5-7-5-4-5-0-2-2-2---------------------------------------
-------------------------------------------------------------------
-------------------------------------------------------------------   ( x4)


-7-7-7-7--7-9-10-12-10-9-10-7-9-9-9-9--------------------------
-------------------------------------------------------------------
-------------------------------------------------------------------   ( x4)

-2-4-5-7-9-9--9-7-5-7-7-5-4-5-7-(8-9)-7-7-5-5-4-4-0-2-2--------
--------------------------------------------------------------------
--------------------------------------------------------------------  

-2-4-5-7-9-9--9-7-5-7-7--12-14-12-10-9-10-9-7-5-7-7-4-0-2-2
-------------------------------------------------------------------------
-------------------------------------------------------------------------

2-22-2-22-2-22-2-2………….-------------------------------------
-------------------------------------------------------------------------
------------------------------------------------------------------------

(και μετά απ την αρχή πάλι, βάζοντας λόγια)


αν έχει τίποτα λαθάκια, επανέρχομαι...
αυτοσχεδιάστε, use the ears too...


Τίτλος: Απ: Παρτιτούρες για Μπαγλαμά Τζουρά 3χορδο μπουζούκι...
Αποστολή από: ΘΟΔΩΡΗΣ στις Σεπτέμβριος 18, 2009, 11:01:37 μμ
abdnm,απλά ρισπέκτ δεν έχω να πω κάτι άλλο...πολύ ακριβής εκτέλεση έκανες χαρούμενο πολύ κόσμο νομίζω... ;D

(αν σου ρθει παίδεψε και το 'μάγικο μελαχροινό' του Μάρκου μήπως το βγάλουμε).

Θα ανεβάσω αύριο το 'αλάνα πειραιώτισσα' του Μάρκου,τον 'Μπουφετζή' του Μπάτη και το 'Παλιά Πληγή' του Θανάση.


Τίτλος: Το διαζύγιο (Μάρκος Βαμβακάρης, "Φράγκος")
Αποστολή από: staurakas στις Σεπτέμβριος 20, 2009, 12:48:05 πμ
To dyazigio



Eisagogi

00-----------6-7-7------------------------------------0-7-6-7-8-7-6--
-----7-8-8-----------7-8-8-4-5-5-0-0-1-4-5-0---------------------




--6-7-8-6-7-8-7-----7-12-11-8-7---0-------0-2-2-2-2-2---2-3-6-7-8-7-6-8-7-----0-
8-------------------8--------------8----8-7--4-4-4-4-4-----------------------------8---




        Logia

--------0----7-7-8-7-6-7---6-7-------------------0------------2-2-2-2-2-- (ta 2 kai ta 4 paizontai synxronos)
0-0-0---8-------------------8------8-7-8-7-5-4-----8-7-5-----4-4-4-4-4-







-2-3-6-7-8-7-8-7-11-8-7-6-7---------0-2-2-2-2-2---2-3-6-7-8-7-6------------0
-------------------------------------8-7--4-4-4-4-4-----------------------8-7-8  kai apo tin arxi




www.youtube.com/watch?v=Smupe4OFJoU


Τίτλος: Απ: Παρτιτούρες για Μπαγλαμά Τζουρά 3χορδο μπουζούκι...
Αποστολή από: ΘΟΔΩΡΗΣ στις Σεπτέμβριος 20, 2009, 03:05:13 πμ
Wraios Stavraka!!!Polu kala vgainei...Exeis mipws kai to 'magiko melaxroino' tou Markou??


Τίτλος: Αλάνα πειραιώτισσα (Μάρκος Βαμβακάρης, "Φράγκος")
Αποστολή από: ΘΟΔΩΡΗΣ στις Σεπτέμβριος 20, 2009, 03:08:18 πμ
Kai to 'alana peiraiwtissa' tou Markou na uparxei ki auto gia opoion thelei.!

1o meros (x2):
12 11 12 14 12 11 (13 12 11) 11 (13 12 12 11 10 9 9) 11 12 14 12 11 (13 12)
12 11 12 14 12 11 (13 12 11) 11 (13 12 12 11 10 9 9 0 5)

Logia (x2):
0 4 5 7 8 7 7 6 5 4 12 11 (13 12)
0 4 5 7 8 7 7 6 5 4


(mpravo re magkes etsi exei parei fwtia to topic!)



www.youtube.com/watch?v=NtqfMaxj3qY


Τίτλος: Απ: Παρτιτούρες για Μπαγλαμά Τζουρά 3χορδο μπουζούκι...
Αποστολή από: nikkortis στις Σεπτέμβριος 20, 2009, 10:32:19 πμ
ωραιοι ρε παιδες... ΘΟΔΩΡΗ θα βαλεις και την Παλια πληγη απο θαναση που ειπες?


Τίτλος: Κορόιδο [για μπουζούκι] (Μάρκος Βαμβακάρης, "Φράγκος")
Αποστολή από: staurakas στις Σεπτέμβριος 20, 2009, 12:10:18 μμ
Gia xara se olous
Dustuxos den t’oxo to magkiko melaxrino alla tha kitakso
Oriste prosorina « to koroido »
T’obala gia mpouzouki, sto mpaglama to paizo allios, pio pano sto maniki.opios theli gia mpaglama as mou to pi kai to bazo                                          

Koroido

Markos Vamvakaris

Eisagogi

12-10-12-14-15-12-14-10-12-8-7-8-9-10-12-     2x

7-7-8-9-12-10-8-7-5-5-3-3-2-3-(3)-3-3-3-

3-2-3-5-6-8-6-5-3-3-2-1-0-0-(3)-(1)-(3)-0-

3-2-3-5-6-8-6-6-5-5-3-32-3-(3)-3-3-3-

3-2-3-5-6-8-6-5-3-3-2-1-0-0-(3)-(1)-(3)-0-

Logia

10-12-14-15-12-14-10-12-8-7-8-9-10-12-   2x

7-8-9-12-10-8-7-5-5-3-3-2-3-3-3-3-

2-3-5-8-6-5-3-3-2-1-0-0-(3)-(1)-(3)-0

2-3-5-6-5-6-5-5-3-3-2-3-(3)-3-3-

2-3-5-8-6-5-3-3-2-1-0-0-(3)-(1)-(3)-0

3-3-3-3-2-3-5-6-9-6-5-3-3-2-1-0-0-(3)-(1)-(3)-0-7-3
                                                                                  5
                                                                                  7



www.youtube.com/watch?v=ZrWhfwnOthI


Τίτλος: Απ: Παρτιτούρες για Μπαγλαμά Τζουρά 3χορδο μπουζούκι...
Αποστολή από: staurakas στις Σεπτέμβριος 20, 2009, 12:17:51 μμ
to teleftaio akordo einai Re m fisika paizontai oi 3 notes synxronos ara
3    1° xordi
5    2°
7    3°


Τίτλος: Απ: Παρτιτούρες για Μπαγλαμά Τζουρά 3χορδο μπουζούκι...
Αποστολή από: nikkortis στις Σεπτέμβριος 20, 2009, 01:06:41 μμ
staurakas  ωραιος ρε φιλε... εαν εχεις και αλλα και μπορεις ανεβασε τα. οσο για τον μπαγλαμα αμα σου ειναι ευκολο ανεβασε το να το παιξουμε και στον μπαγλαμα....

οι παρενθεσεις ειναι χτυπηματα στην δευτερη χορδη ε? ευχαρηστω!


Τίτλος: Κάηκε ένα σχολείο (Κώστας Μπέζος)
Αποστολή από: abdnm στις Σεπτέμβριος 20, 2009, 01:07:07 μμ
Κάηκε ένα σχολείο    
(Κώστας Μπέζος)

παλιό μικρασιάτικο, μετά την καταστροφή της Σμύρνης μπήκαν και άλλα λόγια

-5-7-7-7--7-5-5-3-5-1-1--0--------------------------------
-------------------------3----------------------------------  
------------------------------------------------------------ ( x2 )

-7-8-10-7-10-8-5-7-3-5-3-3-1--0-1-3-1-5-3-3-1--0-------
------------------------------3---- -------------3--------
-----------------------------------------------------------  

-3-3-1--0-1-3-1-5-3-3-1--0-------------------------------
-------3-----------------3----------------------------------
------------------------------------------------------------ ( x2 )  

--0-0---0----0-0---0----0--------------------------------
-0---------0-------------0--------------------------------
 -----0----------0-------0--------------------------------

(και μετά πάλι απ την αρχή)

ακούστε
http://www.youtube.com/watch?v=tLdR2IesDGs


Τίτλος: Οι δυο σερέτες [1] (Μ. Χρυσαφάκης - Ζ. Κασιμάτης & Α. Διαμαντίδης, "Νταλγκάς")
Αποστολή από: abdnm στις Σεπτέμβριος 20, 2009, 03:00:00 μμ
Άλλο ένα

Οι δύο σερέτες


Εισαγωγή

-(4-5)-5-3-(5-6)-6-3-5-0-12-0-12-0-12---------
---0--------------------------------------------  
---0--------------------------------------------

-(4-5)-5-8-8-8-3-5----5---5---5---------------
----------------------5---5---5----------------
-----------------------------------------------  

(Όλο το προηγούμενο επί 2)

Λόγια

-10-10-8-12-8-10--------------8-10-12-----------
-------------------11-8-10-11--------------------
---------------------------------------------------  

-10-10-10-8-12-8-10-----------------------------
----------------------11-8-10--------------------
--------------------------------------------------

(το προηγούμενο επίσης επί 2)

-15-15-14-15-12-8-10-----------------8-10-12-----
-----------------------11-11-8-10-11---------------
----------------------------------------------------

-15-15-14-15-12-8-10------------------------------
----------------------11-11-8-10---10-10-10…-----
----------------------------------------------------

(κι αυτό επί 2)

Ακούστε

http://www.youtube.com/watch?v=dqroUnIkMBs (http://www.youtube.com/watch?v=dqroUnIkMBs)

φυσικά χωρίς το ταξίμι το γράφω   ;D



www.youtube.com/watch?v=MObVhU4A-Bc


Τίτλος: Κορόιδο [για μπαγλαμά] (Μάρκος Βαμβακάρης, "Φράγκος")
Αποστολή από: staurakas στις Σεπτέμβριος 20, 2009, 04:24:00 μμ
KOROIDO
M. VAMVAKARIS
Etsi to paizo ego sto mpaglama den ehei megali diafora mono merika kommatia ta paizo mia oktava pio kato. 1 parenthesi =2° xordi
                           2  parenthesis = 3° xordi
Lipon arhi me xtypima tis 3 xordes adies
Sugnomi gia ti grafi ! Staurakas ek Belgiou.

Eisagogi

0-(3)-0-2-3-0-2-(3)-0-(1)-(0)-(1)-(2)-(3)-0-   2x
(0)
((0))

7-7-8-9-12-10-8-7-5-5-3-3-2-3-(3)-3-3-3-

3-2-3-5-6-8-6-5-3-3-2-1-0-0-(3)-(1)-(3)-0-

3-2-3-5-6-8-6-6-5-5-3-32-3-(3)-3-3-3-

3-2-3-5-6-8-6-5-3-3-2-1-0-0-(3)-(1)-(3)-0-


Logia

(2)-0-2-3-0-2-(3)-0-(1)-(0)-(1)-(2)-(3)-0-  2x


7-8-9-12-10-8-7-5-5-3-3-2-3-3-3-3-

2-3-5-8-6-5-3-3-2-1-0-0-(3)-(1)-(3)-0

2-3-5-6-5-6-5-5-3-3-2-3-(3)-3-3-

2-3-5-8-6-5-3-3-2-1-0-0-(3)-(1)-(3)-0

3-3-3-3-2-3-5-6-9-6-5-3-3-2-1-0-0-(3)-(1)-(3)-0-7-3
                                                                         5
                                                                         7


Mpravo paidia polu endiaferon to topic.
Eho polla rempetika tha prospathiso n'anevaso kamposa.



www.youtube.com/watch?v=ZrWhfwnOthI


Τίτλος: Απ: Παρτιτούρες για Μπαγλαμά Τζουρά 3χορδο μπουζούκι...
Αποστολή από: ΘΟΔΩΡΗΣ στις Σεπτέμβριος 20, 2009, 06:19:26 μμ
Αααα καλά πάμε εμείς!!!  :) 

το 'κάηκε ένα σχολειό' είναι κορυφαίο μπράβο ρε φίλε..

nikkortis ναι το 'παλιά πληγή' του Θανάση το τελειώνω τώρα και θα το ανεβάσω σήμερα-αύριο-μεθαύριο..


Τίτλος: Απ: Παρτιτούρες για Μπαγλαμά Τζουρά 3χορδο μπουζούκι...
Αποστολή από: nikkortis στις Σεπτέμβριος 20, 2009, 06:24:12 μμ
μπραβο ρε παιδια... α ρε ΘΑΝΑΣΗ με φτιαχνεις γιατι ο συνονοματος σου τα σπαει..... μπραβο παιδια ανεβαστε εχουμε παρει φωτια..... ;D


Τίτλος: Ψηλά τη χτίζεις τη φωλιά (Μάρκος Βαμβακάρης)
Αποστολή από: staurakas στις Σεπτέμβριος 20, 2009, 07:57:05 μμ
Gia sas paidia
Oriste to teleuteo. Tragoudara !
Ego to paizo etsi kurios me tis 2 xordes etsi de kaneis megales kinisis me t’aristero .
An kanis ehei kamia partitoura  tin vazo se tabs (diabazo notes)


PSILA TA PARATHYRIA SOU
Markos VAMVAKARIS


Eisagogi
7-7-(10)-9-9-(10)-7-7-(10)-9-9-(10)-7-7-9-(10)-(8)-(7)-9-9-9-9-9-9-9-9-9

7-7-(10)-9-9-(10)-7-7-(10)-9-9-(10)-7-7-9-(10)-(8)-(7-7-7-7-7-7-7-7-7-)

(10)-(10)-(10)-(8)-(7)-7-7-7-(10)-(8)-(10)-7-(10)-(8)-(10)-(8)-(7)-(5)-(7)-9-9-9-9-9-9-9-9-9

(10)-(10)-(10)-(8)-(7)-7-7-7-(10)-(8)-(10)-7-(10)-(8)-(10)-(8)-(7)-(5)-(7-7-7-7-7-7-7-7-7-7)

Logia

9-7-(10)-(8)-(7)-7-7-(10)-(7)-(8)-(5)-(7)-(5)-(7)-(8)-(10)-(7)-(8)-(5)-(7)-(7)-(7)  }2x

  
(7)-(10)-7-7-7-(10)-7-9-10-7-9-(10)-7-(10)-7-9-10-7-9-(10)-7-(7)-(7) }
                                                                                                                } 2x
(7)-10-7-9-10-7-9-(10)-9-(10)-(8)-(7)-(7)-(5)-(7)-(8)-5-(7)-(8)-(5)-(7) }



www.youtube.com/watch?v=gFSRumShzqg


Τίτλος: Απ: Παρτιτούρες για Μπαγλαμά Τζουρά 3χορδο μπουζούκι...
Αποστολή από: staurakas στις Σεπτέμβριος 20, 2009, 07:59:53 μμ
signomi de ksero giati m'ouvale tis fatsoules !!!
i kathe fatsoula einai 8
ok ?


Τίτλος: Απ: Παρτιτούρες για Μπαγλαμά Τζουρά 3χορδο μπουζούκι...
Αποστολή από: nikkortis στις Σεπτέμβριος 20, 2009, 08:35:06 μμ
μπραβο ρε staurakas  ανεβαζε πραμα να γουσταρουμε.... γεια χαρα στο Βελγιο

ΥΣ σου εβγαλε της φατσες επειδη εγραφες παρενθεση 8 και μετα κλεισιμο της παρενθεσης....δεν πειραζει.... εισαι ωραιος!!!!


Τίτλος: Απ: Παρτιτούρες για Μπαγλαμά Τζουρά 3χορδο μπουζούκι...
Αποστολή από: staurakas στις Σεπτέμβριος 21, 2009, 12:05:30 μμ
gia sas paides
ti paksimadokleftra den tin ida.
Min anisihite. th'ane etumi se ligo !!
Bravo sas. Synehisete !!


Τίτλος: Απ: Παρτιτούρες για Μπαγλαμά Τζουρά 3χορδο μπουζούκι...
Αποστολή από: bill στις Σεπτέμβριος 21, 2009, 03:58:44 μμ
ρε παιδιά είναι κανείς που να ξέρει το
"όταν μπουκάρω στον τεκέ" του Ανέστη Δελιά και να μπορεί να κάνει μία ταβ;

http://www.youtube.com/watch?v=dGhGtuBGexk


Τίτλος: Ήσουνα ξυπόλητη (Κώστας Μπέζος)
Αποστολή από: staurakas στις Σεπτέμβριος 21, 2009, 04:49:30 μμ
Oriste molis ti teliosa

Paksimadokleftra


Eisagogi  2x

  0-0-12-10-12-8-7-8-10-8-7-(9-8-7-7-)-0(9-8-7-)                      
 (0)                                                                                              
((0))                                                                                              
                                                                                                    
0-0-12-10-12-8-7-8-10-8-7-(9-8-7-7-)-((10))  -0-0-0                
(0)                                                 2° fora    0-(2)-0-(2)-0      
((0))


 Logia  2x
  0-(3)-0-2-3-4-4-3-3-2-2-0-4-3-2-                  
 (0)-                                                                  
((0))-                                                                  
                                                            
  0-(3)-0-2-3-4-4-3-3-0-2-(3)-0-(2)-0-(2)-0      
 (0)-                                                                    
((0))-                                                                  



www.youtube.com/watch?v=7C9pX25SgP4


Τίτλος: Απ: Παρτιτούρες για Μπαγλαμά Τζουρά 3χορδο μπουζούκι...
Αποστολή από: ΘΟΔΩΡΗΣ στις Σεπτέμβριος 22, 2009, 01:43:04 πμ
Ωραίος σταύρακα!έχει πέσει δουλίτσα ε??Καλά πάμε!!!

Το΄'μαγικό μελαχροινό' το παλέύει κανείς τελικά??

όποιος έχει και τίποτα από μάλαμα,Θανάση,χαίνηδες κτλ ασ το ποστάρει...πολύ ωραία σε μπουζουκι είναι και τα 'γίνεται ο κόσμος μια σταλιά' και 'τσιγγάνα' από μικρές περιπλανήσεις αν τα μπορέι κάποιος!

Τέλειωσα το 'παλιά πληγή' του Θανάση θα το ανεβάσω αύριο.


Τίτλος: Απ: Παρτιτούρες για Μπαγλαμά Τζουρά 3χορδο μπουζούκι...
Αποστολή από: bill στις Σεπτέμβριος 22, 2009, 01:54:22 πμ
Το΄'μαγικό μελαχροινό' το παλέύει κανείς τελικά??

του βαμβακάρη;


Τίτλος: Απ: Παρτιτούρες για Μπαγλαμά Τζουρά 3χορδο μπουζούκι...
Αποστολή από: ΘΟΔΩΡΗΣ στις Σεπτέμβριος 22, 2009, 02:16:01 πμ
ναι bill του Βαμβακάρη.


Τίτλος: Νόστιμο τρελό μικρό μου [1] (Μάρκος Βαμβακάρης, "Φράγκος")
Αποστολή από: bill στις Σεπτέμβριος 22, 2009, 02:31:42 πμ
Βαμβακάρης ---νόστιμο τρελο μικρό


Εισαγωγή

2-3-3  6-7-7-7-8-7-6-8-7-7-7    0-3-2-5-3-2--0-2-2 ------------------5-5-5    8-8-8   11-12-12-11-8-7-7  
0----------------------------------------------------4-4------------------------------------------------
0 ---------------------------------------------------------7-7----------------------------------------        


0-2-1----5-3-2-2 -2 ------
0 -------------------4-4-5
0--------------------------


Στίχοι

3-3- -3 3- 3-3- 3- 3-3 -3 -3 -3-- 5- 3 -2  -2 -2 2-2      5-5-5 - 8-7-- 7-8-5 ---7-8-7-6-3 -6-7-8-8 --
-------------------------------------------------------------------------------------------------
-------------------------------------------------------------------------------------------------




12-12-11-8--11-8-7---- 8-8-7-6-3-6-7-7 -6-7-6-3-2-3-2-0--          
-----------------------------------------------------------
-----------------------------------------------------------


νοστιμο τρελο μικρό μου....

2-3-5-7-5-3-3-2-8-8---2-3-5-7-5-3-3-2-3-2-0
----------------------------------------------
----------------------------------------------



www.youtube.com/watch?v=Ytz2QS5oyG8


Τίτλος: Απ: Παρτιτούρες για Μπαγλαμά Τζουρά 3χορδο μπουζούκι...
Αποστολή από: ΘΟΔΩΡΗΣ στις Σεπτέμβριος 22, 2009, 05:40:58 πμ
Ωπ πολύ ωραίος ρε bill!!!!Έχεις και τα λόγια μήπως σε ταβ να ανεβάσεις.....?????


Τίτλος: Απ: Παρτιτούρες για Μπαγλαμά Τζουρά 3χορδο μπουζούκι...
Αποστολή από: bill στις Σεπτέμβριος 22, 2009, 11:07:33 πμ
δεν τα χω θα κάτσω το βράδυ να το κάνω και θα στείλω


Τίτλος: Απ: Παρτιτούρες για Μπαγλαμά Τζουρά 3χορδο μπουζούκι...
Αποστολή από: staurakas στις Σεπτέμβριος 22, 2009, 11:21:44 πμ
Oraios bill bravo sou.
akousa tin ektelesi tou vamvakari edo  http://www.youtube.com/watch?v=dmT_Rrt0llc&feature=related
Mou fainete pos den einai akrivos sti idia tonikotita.
Nomizo pos arhzi o Vavakaris me Sol matzore ti proti frasi kai to ypsoni se  La m sti 2°. Dystihos den ksero tous ellinikous dromous kai sta leo etsi me to ditiko tropo.
Alla den pirazei katholou ta kommatia mporei na pehtoun opos thelei o kathenas. Milo gia ti ektelesi tou Markou.
Bravo gia ti doulia sou. Se parakalo an mporouses na to teliosis. Gia parti mou otan prolavo tha to kitakso kai sas enimerono.
Auto to topic tha ginei tis trellis!!!


Τίτλος: Απ: Παρτιτούρες για Μπαγλαμά Τζουρά 3χορδο μπουζούκι...
Αποστολή από: nikkortis στις Σεπτέμβριος 22, 2009, 11:40:55 πμ
Ωραίος σταύρακα!έχει πέσει δουλίτσα ε??Καλά πάμε!!!

Το΄'μαγικό μελαχροινό' το παλέύει κανείς τελικά??

όποιος έχει και τίποτα από μάλαμα,Θανάση,χαίνηδες κτλ ασ το ποστάρει...πολύ ωραία σε μπουζουκι είναι και τα 'γίνεται ο κόσμος μια σταλιά' και 'τσιγγάνα' από μικρές περιπλανήσεις αν τα μπορέι κάποιος!

Τέλειωσα το 'παλιά πληγή' του Θανάση θα το ανεβάσω αύριο.
συμφωνω απολυτα με τον ΘΟΔΩΡΗ οπως επισης και απο Χειμερινους Κολυμβητες....


Τίτλος: Απ: Παρτιτούρες για Μπαγλαμά Τζουρά 3χορδο μπουζούκι...
Αποστολή από: alexan στις Σεπτέμβριος 22, 2009, 03:38:16 μμ
allaaaa magkes


Τίτλος: Απ: Παρτιτούρες για Μπαγλαμά Τζουρά 3χορδο μπουζούκι...
Αποστολή από: alexan στις Σεπτέμβριος 22, 2009, 03:48:35 μμ
PAXIMADOLKLEFTRA

0 0 12 10 8 7 8 10 8 7                                        0 0 12 10 8 7 8 10 8 7              0 0    0    0
                               9 8 7 8 7 5 9999 8888 7777                                 9 8 7 8 7      0    0


Logia :

0    0 2 3 4 4 3 3 2 3 2 0 4 4 4 4 3 3 3 3 2 2 2 2    0    0 2 3 4 4 3 3 2 2 0 0 0 0 0 0 0 0 0 0 0 0 0 0
   3                                                                   3





Τίτλος: Απ: Παρτιτούρες για Μπαγλαμά Τζουρά 3χορδο μπουζούκι...
Αποστολή από: tsiblinidis στις Σεπτέμβριος 22, 2009, 09:17:39 μμ
Και πάλι μπράβο! Αν μπορεί κανείς, προτείνω να παρουσιάσει το τραγούδι του Σπύρου Περιστέρη, "ο αντώνης ο βαρκάρης". Ευχαριστώ εκ των προτέρων για κάθε προσπάθεια!


Τίτλος: Απ: Παρτιτούρες για Μπαγλαμά Τζουρά 3χορδο μπουζούκι...
Αποστολή από: ΘΟΔΩΡΗΣ στις Σεπτέμβριος 22, 2009, 09:44:04 μμ
Ναι σταύρακα ίσως έχεις δίκιο αλλά βγάίνει πολύ καλά όπως το παρουσίασε ο bill...αναμένουμε και τη συνέχεια με τα λόγια...


Τίτλος: Απ: Παρτιτούρες για Μπαγλαμά Τζουρά 3χορδο μπουζούκι...
Αποστολή από: punkpagour στις Σεπτέμβριος 23, 2009, 02:30:36 πμ
F,A#,A,Gm,Dm,A,Dm,A,Dm
 
Dm                                   A
Κάνω τη τσάρκα μου, περνώ, για σε μικρό μελαχρινό
  Gm    A      Dm
από τη γειτονιά σου
Dm
για τα γλυκά τα μάτια σου
      D          Gm
και για την εμορφιά σου
Dm
για τα γλυκά τα μάτια σου
      A          Dm A Dm
και για την εμορφιά σου
      Gm                     A          Dm
Νόστιμο τρελό μικρό μου, μάγκικο μελαχρινό μου


Τίτλος: Απ: Παρτιτούρες για Μπαγλαμά Τζουρά 3χορδο μπουζούκι...
Αποστολή από: punkpagour στις Σεπτέμβριος 23, 2009, 02:33:36 πμ
Επίσης κι αυτό .Πολύκαλό ρεμπέτικο του Χατζηχρίστου:

Η πεντάμορφη

Μουσική/Στίχοι: Χατζηχρήστος Απόστολος/Βασιλειάδης Χαράλαμπος
   

 
 D D#   D         D#     D
Σιγά-σιγά, φίλε μου τ’ αμάξι
Cm                    D       D#     D
Έφτασ’ η πεντάμορφη, τις καρδιές να κάψει   ] 2x
 
Σε εξοχικό ήρθε να γλεντήσει
και σα ρεμπέτισσα μια βραδιά να ζήσει   ] 2x
 
Ρομαντικό στέκι αν ξέρεις, πάμε
Τέτοιες νύχτες όμορφες πρέπει να γλεντάμε   ] 2x
 


Τίτλος: Απ: Παρτιτούρες για Μπαγλαμά Τζουρά 3χορδο μπουζούκι...
Αποστολή από: bill στις Σεπτέμβριος 23, 2009, 02:56:11 μμ
Τωρα για την τονικότητα δεν ξέρω ...το έχω βγάλει σε μπαγλαμά και μου φαίνεται οκ


Τίτλος: Απ: Παρτιτούρες για Μπαγλαμά Τζουρά 3χορδο μπουζούκι...
Αποστολή από: staurakas στις Σεπτέμβριος 23, 2009, 05:58:08 μμ
Bravo Bill ohi mono to telioses alla polu oraia xtipaei !!!
Respect !


Τίτλος: Απ: Παρτιτούρες για Μπαγλαμά Τζουρά 3χορδο μπουζούκι...
Αποστολή από: abdnm στις Σεπτέμβριος 24, 2009, 12:12:57 πμ
έχει κανείς το "συνάχη" από μάρκο, παίδες?


Τίτλος: Νόστιμο τρελό μικρό μου [2] (Μάρκος Βαμβακάρης, "Φράγκος")
Αποστολή από: staurakas στις Σεπτέμβριος 24, 2009, 09:24:57 πμ
MAGIKO MELAXRINO  (omorfo melaxrino mou)
Kata Markon

M. VAMVAKARIS



G                  Em                                               B7
5-5-5-9-9-9-10-9-8-10-9-9-9-5-4-7-5-5-4-4-2-4-1-(2)-1-

 Am                                        Em     B7                      Em                                                                                        
7-7-7-10-10-10-10-14-13-10-9-9-9-5-4-7-5-5-4-4-2-2-(1)-2-(1)-2-4-

G                  Em                                               B7    
5-5-5-9-9-9-10-9-8-10-9-9-9-5-4-7-5-5-4-4-2-4-1-(2)-1-

Am                                          Em     B7                     Em        
                                                                                     kano ti            
7-7-7-10-10-10-10-14-13-10-9-9-9-5-4-7-5-5-4-4-2-2-(1)-2-(1)-2-4-


                            B7                              Am      
tsarka mou…                                       apo ti geito
5-5-5-5-5-5-5-5-7-5-4-4-4-----4-4-4-6-7-9-10-9-

Em                                                                Am                Em
nia   sou   gia ta ….
8-9-5-----9-10-9-8-5-8-9-10-9-14-13-10-9-10-9-7----7-9-10-9-8-5-

                                                                         Am                             Em
                                           nostimo mikro….              magiko…        
8-9-10-9-8-5-9-8-5-4-2----4-5-7---9—7—5--10-10-10-4-5-7-9-7-5-4-5-2-----


(gemisma)                  Am                                                    Em
4-5-7-7-9-9-7-9-7-5-10-10-10-10-10-4-5-7-7-9-9-7-9-5-7-4-5-2-----



www.youtube.com/watch?v=Ytz2QS5oyG8


Τίτλος: Απ: Παρτιτούρες για Μπαγλαμά Τζουρά 3χορδο μπουζούκι...
Αποστολή από: staurakas στις Σεπτέμβριος 24, 2009, 09:44:54 πμ
O synaxis erxetai...

Afiste me kamia dio meres... to magiko melaxrino m'ouvgale ti panagia. T'oxo ixograpsi sto ypologisti se midi format
(den t'ouvala ta akompaniamenta akoma) an to thelei kanis gia na to mathi pio eukola as mou stilei minima.


Τίτλος: Απ: Παρτιτούρες για Μπαγλαμά Τζουρά 3χορδο μπουζούκι...
Αποστολή από: abdnm στις Σεπτέμβριος 24, 2009, 01:43:44 μμ
take your time stauraka...


Τίτλος: Απ: Παρτιτούρες για Μπαγλαμά Τζουρά 3χορδο μπουζούκι...
Αποστολή από: ΘΟΔΩΡΗΣ στις Σεπτέμβριος 24, 2009, 02:20:41 μμ
ωραίος σταύρακα!!Να ζητήσω και γω κάτι με τη σειρά μου....έχει κανείς σε ταβ το 'παράτα τα' του Άσιμου μαζί μετο θεματάκι του που είναι κάπου στη μέση του τραγουδιού??

http://www.youtube.com/watch?v=Xvm_XyOT1xo


Τίτλος: Παλιά πληγή (Θανάσης Παπακωνσταντίνου)
Αποστολή από: ΘΟΔΩΡΗΣ στις Σεπτέμβριος 24, 2009, 03:01:30 μμ
Και το 'Παλιά πληγή' του Θάνάση για όποιον ενδιαφέρεται. (( )) η πάνω ρε,( ) η λα και σκέτη η κάτω λεπτή ρε.

Εισαγωγή

((3))-(0)-5-((3))-(0)-3-(0)------((5))-(0)-7-((5))-(0)-5-(0)------((5))-(0)-8-7-10-8-7-5
((3))-(0)-5-((3))-(0)-3-(0)------((5))-(0)-7-((5))-(0)-5-(0)------(8)-(7)-(8)-(7)-(3)-(2)-(3)-(0)

((0))-(0)-0-(0)-((0))-(0)-0-(0)


Λόγια

         Βαθιά πληγή                                Παλιά πληγή                         Μονάκριβη δική μου
((3))-(0)-0-(0)-((3))-(0)-0-(0)----((5))-(0)-7-(0)-((5))-(0)-0-(0)----((5))-(0)-0-(0)-10-10-8-8-7-7-5-5

       Την ξεριζώνω                              απ' την καρδιά                           φυτρώνει στην αυλή μου
((3))-(0)-0-(0)-((3))-(0)-0-(0)----((5))-(0)-7-(0)-((5))-(0)-0-(0)-((5))-----7-5-3-2-2-(3)-(3)-2-2-((0))-(0)-0

Και μετά το ίδιο ανάποδα για το κάθε δίστιχο και εισαγωγή κτλ..


πριν το ρεφραίν είναι το εξής θεματάκι

(0)-(1)-(0)-3-3-3-3-3   (χ2)
(0)-(1)-(0)-7-5-3-3-3
(0)-(1)-(0)-3-3-3-3-3


και μετά ρεφραίν ''Αγαπημένα πρόσωπα αγαπημένα μάτια' χωρίς να παίζει κάτι

   έρχονται                      σαν τα                                   κύματα
((3))-(0)-0-(0)---------((5))-(0)-0-(0)---------------7-7-5-5-3-3-2-2
   κι αφήνουν                   κατα--                                 --κάααθια
((3))-(0)-0-(0)--------((5))-(0)-0-(0)---------------7-7-5-5-3-3-2-2-((0))-(0)-0-(0)-((0))-(0)-0-(0)

μετά εισαγωγή πάλι
                            
http://www.youtube.com/watch?v=b33ikhpmArc

εδώ το τραγούδι να δείτε περίπου πώς παίζεται και ακούγεται.



Τίτλος: Ο συνάχης (Μάρκος Βαμβακάρης, "Φράγκος")
Αποστολή από: staurakas στις Σεπτέμβριος 25, 2009, 12:43:45 πμ
Gia sas paides
Lipon  oi notes me perisoteres gramoules apo piso kratane perisotero parad.
  7- (grigori nota)
7-----(krataei pio poli)


O SYNAXIS

M .VAMVAKARIS



Dm                                                                                                               F    
8-7-8-10-8-7-(9)---7-(9)-(9)-(8 )-7-(9)-(9)-(8 )-7-(9)-(9)-(8 )-(8 ) -(7)-(7)-0-(8 )----7-8-10-8-7-(9)-(8 )----


Dm                                                                                                                  

8-7-8-10-8-7-(9)---7-(9)-(9)-(8 )-7-(9)-(9)-(8 )-7-(9)-(9)-(8 )-(8 )-(7)-(7)-0-0-----(0)-(0)-(0)-(0)-0-----


Dm                                        F
sun a  xomenos  m.           amanaman
(3)-0-2-3-2-4-3-3-2-2-0-0-8-7-(9)-(8 )----


Dm

Mourmouri m…
(3)-0-2-3-2-4-3-3-2-3-2---0-0-----(2)-0—(2)-0-----




Elpizo na me katalavate.(kai na mi ekana kai kana lathos..spazokefalia einai me ta noumera !)
Opios thelei tou to stelno se midi format mono pou xriazomai adress mail dioti meso forum den mporo.

Gia to original tou Markou edo  
http://www.youtube.com/watch?v=pBPSLI4znKA


Τίτλος: Απ: Παρτιτούρες για Μπαγλαμά Τζουρά 3χορδο μπουζούκι...
Αποστολή από: alexan στις Σεπτέμβριος 25, 2009, 02:59:30 μμ
geia sou re stavraka me ta wraia sou


Τίτλος: Απ: Παρτιτούρες για Μπαγλαμά Τζουρά 3χορδο μπουζούκι...
Αποστολή από: bill στις Σεπτέμβριος 28, 2009, 08:45:35 μμ
O synaxis erxetai...

Afiste me kamia dio meres... to magiko melaxrino m'ouvgale ti panagia. T'oxo ixograpsi sto ypologisti se midi format
(den t'ouvala ta akompaniamenta akoma) an to thelei kanis gia na to mathi pio eukola as mou stilei minima.

σε midi πως το ηχογραφισες;;


Τίτλος: Απ: Παρτιτούρες για Μπαγλαμά Τζουρά 3χορδο μπουζούκι...
Αποστολή από: staurakas στις Σεπτέμβριος 29, 2009, 01:29:44 πμ
me to programma Note worty composer
diladi prepei na xtipisis ti partitoura se notes
mporeis na to vris sto internet


Τίτλος: Απ: Παρτιτούρες για Μπαγλαμά Τζουρά 3χορδο μπουζούκι...
Αποστολή από: bill στις Σεπτέμβριος 29, 2009, 02:22:25 πμ
με midi keyboard ας πούμε;;


Τίτλος: Απ: Παρτιτούρες για Μπαγλαμά Τζουρά 3χορδο μπουζούκι...
Αποστολή από: ΘΟΔΩΡΗΣ στις Σεπτέμβριος 29, 2009, 05:17:33 πμ
Παιδιά έχει κανείς τα ''νίκος ο τρελάκιας'' του Δελλιά και ''φυλακές του Ωρωπού'' του Μπάτη ή κάποιο από αυτά????



Τίτλος: Απ: Παρτιτούρες για Μπαγλαμά Τζουρά 3χορδο μπουζούκι...
Αποστολή από: abdnm στις Σεπτέμβριος 29, 2009, 12:08:04 μμ
Τα έχω αυτά τα δύο....σκεφτόμουν να τα ανεβάσω, αλλά έχουν κάτι μικρολεπτομέρειες που θέλω να ξανακοιτάξω, οπότε σε καμιά βδομάδα λέω...


Τίτλος: Απ: Παρτιτούρες για Μπαγλαμά Τζουρά 3χορδο μπουζούκι...
Αποστολή από: ΘΟΔΩΡΗΣ στις Σεπτέμβριος 29, 2009, 07:19:31 μμ
Ωραίος abdnm!!!Τις μικρολεπτομέρειες τις καθορίζει και ο καθένας με το αυτί του αρκεί να έχει μία βάση του πώς βγαίνει το κομμάτι.!!Οπότε και μικρολεπτομέρειες να μην κοιτάξεις μια χα΄ρά θα μαστε..

όπως και να 'χει,αναμένουμε...!!


Τίτλος: Απ: Παρτιτούρες για Μπαγλαμά Τζουρά 3χορδο μπουζούκι...
Αποστολή από: punkpagour στις Σεπτέμβριος 30, 2009, 11:08:20 πμ
Παιδιά μια μικρή συνεισφορά στην πληροφόρηση πάνω στα ρεμπέτικα.
Το τραγούδι θεέ μου μεγαλοδύναμε είναι νομίζω του παλιού ρεμπέτη και συνθέτη Γεράσιμου Κλουβάτου.
Παλιό ρεμπέτικο (μουρμούρικο), που τραγουδιέται ως τελευταίο τραγούδι, πριν κλείσει ο τεκές


Τίτλος: Απ: Παρτιτούρες για Μπαγλαμά Τζουρά 3χορδο μπουζούκι...
Αποστολή από: kthulu στις Σεπτέμβριος 30, 2009, 10:50:06 μμ
συγχαρητήρια! αν μπορεί κανεις ας βάλει το Νίκος ο τρελακιας και το Στου λινάρδου την ταβέρνα!


Τίτλος: Οι φυλακές του Ωρωπού [1] (Γιώργος Μπάτης)
Αποστολή από: staurakas στις Οκτώβριος 01, 2009, 12:00:00 μμ
Oriste paidia mia vasi  gia to

Filakes tou oropou

I kathe grammi piso ap’ton arithmo dixnei poso kairo krataei i nota
oi kokkines einai grigores
1 parenthesi 2° xordi
2 parentheseis 3° xordi


Dm
0-2-4-3-3-4-3-2-0--2--3---


0-2-4-3-3-4-3-2-0--2--3-4-3-2-3---


0-2-4-3-3-4-3-2-0--2--3---0---1---1-3-1-0--(0)-0-(0)-0---



Logia

Dm           F
    St’oropo..
0--7--8--10--7-8-7-(9--8--9--) 7--(9--8--7--8)--((10))-(8 )--((10)--(8 )---


Dm          F                                                 Dm
    pio kala…                      
0--7--8--10--7-8-7-(9--8--9--) 7--(9--8--7--) 0---(0)-0-(0)-0---


abdnm perimenome tis leptomeries ante kouragio !



www.youtube.com/watch?v=1arKS9W68Qs


Τίτλος: Ο Νίκος ο τρελάκιας (Ανέστης Δελιάς, "Αρτέμης")
Αποστολή από: abdnm στις Οκτώβριος 01, 2009, 04:50:18 μμ
Ο Νίκος ο τρελάκιας

με κάποια επιφύλαξη παιδιά, γιατί οι πενιές του Δελιά δεν πιάνονται ακριβώς...

Εισαγωγή

2--2-4-5-9-7-5-4-5-5-2-4-0-4-4-5-9-7-
0---------------------------------------  
0---------------------------------------

-2--2-2-2-4-5-5-4-7-5-4-5-5-2-4-0-----0---0-
---------------------------------------0---0--
----------------------------------------------  

(Όλο το προηγούμενο επί 2)


Λόγια

Τον ξέρετε  μωρέ παιδιά…
-12-7-7-9-7--12-7-7-9-5-4-5-5-2-4-0-4-4-5-9-7-
---------------------------------------------------------
----------------------------------------------------------  

Παιδί τζιμάνι….

-7-12-7-7-9-7--12-7-7-9-5-4-5-5-2-4-0-0-0-0….
----------------------------------------------------------
-----------------------------------------------------------

(το προηγούμενο επίσης επί 2)

και πάλι από την αρχή



www.youtube.com/watch?v=D5iC3H_a9Tk


Τίτλος: Απ: Παρτιτούρες για Μπαγλαμά Τζουρά 3χορδο μπουζούκι...
Αποστολή από: ΘΟΔΩΡΗΣ στις Οκτώβριος 02, 2009, 08:31:07 μμ
abdnm ωραίος!!!Σταύρακα στις φυλακές του Ωρωπού έχεις βγάλει και συγχορδίες κιθάρας όπως έκανες και με τα άλλα μήπως??


Τίτλος: Ραντεβού σαν περιμένω (Γιάννης Παπαϊωάννου, "Ψηλός")
Αποστολή από: staurakas στις Οκτώβριος 03, 2009, 07:47:41 μμ
Rantevou san perimeno

PAPAIOANNOU

Oi kokkines pio grigora
to ((3)) me ton antihira kai aste to na htipisi.

Eisagogi

Dm
((3))-0-3-2-0-((3))-0-3-2-0-((3))-3-2-0-7-12-12-            }
                                                                                         }
 Dm                                                                                   }      2x
((3))-0-3-2-0-((3))-0-3-2-0-((3))-0-2-(4)-(5)-(5)-(5)-      }


Logia


Dm
Rantevou…
11-8-7-6-(8 )-7-6-(8 )-(7)-(5)-(7)-(8 )-6-7-      }
Kai m’ar…
 Dm                                                              }        2x
11-8-7-6-(8 )-7-6-(8 )-(7)-(5)-(0)-(5)-(0)-(5)-  }



www.youtube.com/watch?v=Erw05_L8Ut4


Τίτλος: Απ: Παρτιτούρες για Μπαγλαμά Τζουρά 3χορδο μπουζούκι...
Αποστολή από: staurakas στις Οκτώβριος 03, 2009, 07:54:46 μμ
Ela thodori evala ta akompaniamenta sto "filakes tou oropou"
dokimasto etsi .
Bravo paides kali doulia ginetai.


Τίτλος: Απ: Παρτιτούρες για Μπαγλαμά Τζουρά 3χορδο μπουζούκι...
Αποστολή από: ΘΟΔΩΡΗΣ στις Οκτώβριος 06, 2009, 04:19:11 πμ
Ωραίος ρε φίλε σταύρακα!!!Δε μου λες,σε προηγούμενη σελίδα έχει βγάλει ο abdnm καλά τον 'Πινόκλη' με βάση την εκτέλεση του Θανάση....έχεις ιδέα τι παίζει η κιθάρα από πίσω...το παλέυω με ένα φίλο αλλά δεν είμαστε σίγουροι....έχω εντύπωση ότι αρχίζει απο Em με βάση αυτό που ανέβασε ο abdnm αλλά και πάλι δεν είμαι σίγουρος..αν βρεις τις συγχορδίες με βάση τον πινόκλη που ανέβηκε εδώ γράφτες αν μπορείς γιατί με δυσκολεύει λιγάκι.


Τίτλος: Απ: Παρτιτούρες για Μπαγλαμά Τζουρά 3χορδο μπουζούκι...
Αποστολή από: nikkortis στις Οκτώβριος 06, 2009, 04:08:49 μμ
ερχεται απο εμενα το Πρωτο Φθινοπωρο και το Μπιρ Αλλάχ..... ελπιζω μεχρι το βραδυ να τα εχω βαλει αλλιως αυριο....


Τίτλος: Απ: Παρτιτούρες για Μπαγλαμά Τζουρά 3χορδο μπουζούκι...
Αποστολή από: punkpagour στις Οκτώβριος 07, 2009, 01:42:52 μμ
Παιδιά λέτε να μπορούμε να βγάλουμε και τα μπλέ παραθυρά σου από Μάρκο,νομίζω ότι είναι παιγμένο από Λα.


Τίτλος: Απ: Παρτιτούρες για Μπαγλαμά Τζουρά 3χορδο μπουζούκι...
Αποστολή από: staurakas στις Οκτώβριος 07, 2009, 05:55:11 μμ
Ta mple parathyra t'oho se partitoura. Tha to kitaxo (gia tous daktilismous) kai tha to katagrapso se tabs... se ligo... :)
Malista arhizei apo La alla i geniki tonikotita tou einai Re min . Ligi ypomoni .
Thodori koitazo gia tis synhordies tou pinokli kai se enimerono...


Τίτλος: Απ: Παρτιτούρες για Μπαγλαμά Τζουρά 3χορδο μπουζούκι...
Αποστολή από: ΘΟΔΩΡΗΣ στις Οκτώβριος 08, 2009, 04:04:02 πμ
Σταύρακα ευχαριστούμε ρε φίλε κάνεις πολύ καλή δουλειά...!!


Τίτλος: Πρώτο φθινόπωρο (Βαγγέλης Κορακάκης)
Αποστολή από: nikkortis στις Οκτώβριος 08, 2009, 12:07:15 μμ
Πρωτο Φθινοπωρο Κορακακης

Εισαγωγη:
---3-3-3-3-3--2-5-5-3-2-0----3-3-3-3-3-2-5-7-5-3-2-0-0-2-0
-0---------------------------0-------------------------4-------
------------------------------------------------------------------

---5-5-5-7-8-5-7-8-5-12-12-12-7-7-3-3-0-0--------------------------12
-5---------------------------------------------12-11-12-15-14-13-12-
-------------------------------------------------------------------------

Λογια:
-8-7-6-7-3-0-----0-2-3-2-(2-3-4-5)--5-3-2-3-2-0--------0-(2-3-4-5)-5-8-7-8-5-2-2-3-4-5-3--
--------------0-4----------------------------------0-1-4--------------------------------------
-----------------------------------------------------------------------------------------------

-3-2-0-2-0----------0-(2-3-4-5)-5-8-7-8-5-2-2-3-4-5-3----3-2-0-2-0----------0
------------4-0-1-4---------------------------------------------------4-0-1-4--

οι παρενθεσεις ειναι γεφυρες (γεμισματα)



www.youtube.com/watch?v=hzYqP0y_UHU


Τίτλος: Μπιρ αλλάχ [1] (Γιάννης Σταμούλης - Στέλλα Χασκήλ, "Σαλονικιά")
Αποστολή από: nikkortis στις Οκτώβριος 08, 2009, 12:21:35 μμ
Μπιρ Αλλάχ (Σαν βγαίνει ο Χότζας στο τζαμί)

Εισαγωγη:
10-10-10-12-10-12-13-12-10-8-7-8-7-8-10-8-7-5-3-5-3-5-7-8-5-3-1-0-0-1-3-5-7
---------------------------------------------------------------------------------
----------------------------------------------------------------------------------

10-10-10-12-10-12-13-12-10-8-7-8-7-8-10-8-7-5-3-5-3-5-7--3-1-1-0-0
------------------------------------------------------------------------
-------------------------------------------------------------------------

Λογια:
---0-2-3-5-7-8-5-8-7-(5-3-1-0)-----0-2-3-5-10-8-7-(-8-7-5)-5-7-8-12-12-10-8-10-7-8-5-3-1-0-0-
-3--------------------------------3------------------------------------------------------------------------
-----------------------------------------------------------------------------------------------------------

-12-10-8-7-5-10-8-7----5-7-8-12-12-10-8-10-7-8-5-3-1-0-0-12-10-8-7-5-3-1-0-
---------------------------------------------------------------------------------
---------------------------------------------------------------------------------

οι παρενθεσεις και σε αυτο το τραγουδι ειναι γεφυρες(γεμισματα)



www.youtube.com/watch?v=qAavNKlghfI


Τίτλος: Απ: Παρτιτούρες για Μπαγλαμά Τζουρά 3χορδο μπουζούκι...
Αποστολή από: ΘΟΔΩΡΗΣ στις Οκτώβριος 09, 2009, 03:01:21 πμ
Ωραίος nikkortis!!


Τίτλος: Απ: Παρτιτούρες για Μπαγλαμά Τζουρά 3χορδο μπουζούκι...
Αποστολή από: punkpagour στις Οκτώβριος 09, 2009, 11:46:46 πμ
Μπράβο  ρε φίλε πάντα τέτοια... ;)


Τίτλος: Τα μπλε παράθυρά σου [1] (Μάρκος Βαμβακάρης, "Φράγκος")
Αποστολή από: staurakas στις Οκτώβριος 10, 2009, 11:29:48 πμ
TA  MPLE  PARATHYRA

M .  VAMVAKARIS



7-8-(8 )--(10)--7--12-12-10--8-7-(10)-(8 )

-7-(10)-(8 )-(7)-0-(7)-(8 )-(8 )-(10)-7-(8 )-
                                                                                                                                    
                                                                                                            
7-8-(8 )--(10)-7-12-12-10-8-7-(10)-(8 )
                                            
-7-(10)-(8 )-(7)-0-(0)-0-(0)-0-          


Logia

(8 )-7-(8 )-6-(8 )-6-7-8-7-10-8-7-6-7-(8 )-7-(8 )-7-(8 )    

 
-7-(8 )-6-(8 )-6-7-8-7-10-8-7-6-7-(8 )-7-(8 )-7-7-

-8-7-5-(8 )-5-(8 )-5-7-8-7-5-(8 )-5-0-5-(8 )-5-(8 )-


5-7-8-7-10-8-7-5-7-5-(8 )-(7)-0-(0)-0-(0)-0-(8 )-




7-8-(8 )-(10)-7-10-10-8-7-(8 )-(10)-7-(10)-(8 )-(7)-0-0-(7)-(8 )-(10)-7-(8 )-


7-8-(8 )-(10)-7-10-10-8-7-(8 )-(10)-7-(10)-(8 )-(7)- (apo tin arhi)
                                                               telos    0-0-(0)--0---


Midi format diathesimo.



www.youtube.com/watch?v=CPYwCdRL8GU


Τίτλος: Απ: Παρτιτούρες για Μπαγλαμά Τζουρά 3χορδο μπουζούκι...
Αποστολή από: abdnm στις Οκτώβριος 10, 2009, 12:58:15 μμ
Μπράβο ρε Stavraka, ευχαριστούμε!

Μάγκες επόμενος στόχος: "Ελένη η ζωντοχήρα", το έχει κανείς?


Τίτλος: Απ: Παρτιτούρες για Μπαγλαμά Τζουρά 3χορδο μπουζούκι...
Αποστολή από: nikkortis στις Οκτώβριος 10, 2009, 03:06:43 μμ
Μπράβο ρε Stavraka, ευχαριστούμε!

Μάγκες επόμενος στόχος: "Ελένη η ζωντοχήρα", το έχει κανείς?


θεικο τραγουδι... μακαρι να το βγαλουμε....
staurakas  με το midi στελνοντας το μου... τι κερδιζω? να ακουσω τον ρυθμο?


Τίτλος: Απ: Παρτιτούρες για Μπαγλαμά Τζουρά 3χορδο μπουζούκι...
Αποστολή από: staurakas στις Οκτώβριος 10, 2009, 04:52:35 μμ
den kerdizis tipota ! dystyhos!!!  :)
aploustata einai pio eukola na to matheis akouontas midi format .
Kai malista den epitrepi to midi allages rythmou.
Kales penies kai aïnte opios ehei kefi... tin zontohira !


Τίτλος: Απ: Παρτιτούρες για Μπαγλαμά Τζουρά 3χορδο μπουζούκι...
Αποστολή από: nikkortis στις Οκτώβριος 10, 2009, 06:52:08 μμ
den kerdizis tipota ! dystyhos!!!  :)
aploustata einai pio eukola na to matheis akouontas midi format .
Kai malista den epitrepi to midi allages rythmou.
Kales penies kai aïnte opios ehei kefi... tin zontohira !
εαν θελεις στειλε μου το midi απο τα μπλε παραθυρα... να δοκιμασω.


Τίτλος: Απ: Παρτιτούρες για Μπαγλαμά Τζουρά 3χορδο μπουζούκι...
Αποστολή από: antifas στις Οκτώβριος 11, 2009, 01:34:21 πμ
Μπράβο ρε μάγκες, έχετε κάνει πολύ καλή δουλειά! Μια παραγγελιά κι απο μένα, για όποιον μπορει (και αμα θέλει) να γράψει την Προύσσα και τον Ψαρά σε μορφή ταμπλατούρας. http://www.youtube.com/watch?v=apnAyyLuVIg&feature=related (http://www.youtube.com/watch?v=apnAyyLuVIg&feature=related) ,  http://www.youtube.com/watch?v=PxEH6JwOKR4 (http://www.youtube.com/watch?v=PxEH6JwOKR4)


Τίτλος: Απ: Παρτιτούρες για Μπαγλαμά Τζουρά 3χορδο μπουζούκι...
Αποστολή από: philipas στις Οκτώβριος 15, 2009, 12:06:35 μμ
ΤΟ 2007 είχες βάλει το 1ο σου Post για να ειμαι ειλικρινης νομιζα πως θα κουραστεις ή θα βαρεθεις αλλα ευτυχως για μενα και για αλλους δεν εγινε ετσι...

μετά από πολύ καιρό δηλαδή εχθες εκανα παλι μια προσπαθεια να ξαναβρω ταμπλατουρες
σε ευχαριστω πολυ και τα αλλα τα παιδια που μας βοηθατε να παιξουμε κανενα τραγουδακι..συνεχιστε ετσι....!!!!
:) :D
επισης και εγω προσπαθω να βγαλω την ΠΡΟΥΣΣΑ οποιος μπορει και θελει ειμαι ευγνωμων!


Τίτλος: Ηρωίνη και μαυράκι (Προύσσα) [1] (Σωτήρης Γαβαλάς - Στελλάκης Περπινιάδης)
Αποστολή από: bill στις Οκτώβριος 18, 2009, 08:21:16 μμ
Προύσσα

9-10-9-7-6--------------------------------6-7----------9-10-9-7-6-------------------------------
-------------8-7-5----------8-7-5-4-5-7-8-------------------------8-7-5---8-7-5-4-5------5----5
------------------------------------------------------------------------------------------7----7--


Στίχοι
10-12-12-14-12-15-14-12-10-12-12-------10-12-12-10-12-12-10-12-14-12-10-8-7-
-----------------------------------------------------------------------------------
-----------------------------------------------------------------------------------


7-8-8--8-7-8-7-5-3-2-0-0----2-3-3--3-2-3-2-0-------2-3-5-7
--------------------------------------------------4-5--------
--------------------------------------------------------------


7-8-8--8-7-8-7-5-3-2-0-0----2-3-3--3-2-3-2-0-------
--------------------------------------------------4-5-5-5
----------------------------------------------------------



www.youtube.com/watch?v=gDtt3kM6ywU


Τίτλος: Απ: Παρτιτούρες για Μπαγλαμά Τζουρά 3χορδο μπουζούκι...
Αποστολή από: nikkortis στις Οκτώβριος 27, 2009, 06:20:07 μμ
τι παθαμε και εχουμε κολλησει ετσι????


Τίτλος: Απ: Παρτιτούρες για Μπαγλαμά Τζουρά 3χορδο μπουζούκι...
Αποστολή από: jojo στις Οκτώβριος 27, 2009, 09:19:17 μμ
μπράβο παιδιά, πολύ καλή δουλειά!
μεγάλη μαγκιά να μπορεί κάποιος να ακούσει το τραγούδι και να το βγάλει στο μπουζούκι και μετά στο χαρτί!
respect!




Τίτλος: Εγώ θέλω πριγκηπέσσα (Γ. Εϊντζιρίδης, "Γιοβάν Τσαούς" - Στελλάκης Περπινιάδης)
Αποστολή από: mapat1984 στις Οκτώβριος 28, 2009, 01:44:31 πμ
Γειά σε όλους!

Καταρχην θα θελα να πω ένα μεγάλο ευχαριστώ σε αυτούς που ξεκίνησαν αυτό το post. Έχουν βοηθήσει πάρα μα πάρα πολύ όλους εμάς τους αρχάριους τρίχορδους!

Έχω κάνει κι εγώ μια προσπάθεια για να συμβάλλω με μερικά τραγουδάκια. Καθώς είμαι νέο μέλλος θα κάνω μια φιλότιμη προσπάθεια να τα γράψω σε ταμπλατούρες (αν και δεν είμαι πολύ σίγουρος ότι θα τα καταφέρω...)

Όπως προείπα είμαι κι εγώ αρχάριος οπότε αν δείτε κάνα λάθος σε αυτά που γράφω μη διστάσετε να με διορθώσετε!

(σημείωση: θα γράψω με τον γνωστό - μπερδευτικό για μένα - τρόπο που γράφονται σηνήθως οι ταμπλατούρες, δηλαδή η χορδή που σημειώνω πάνω πάνω είναι στην πραγματική ζωή η κάτω "ψιλή" ρε του τρίχορδου)

λοιπόν ξεκινάω:

Εγώ θέλω Πριγκιπέσσα (Γιοβάν Τσαούς)

Εισαγωγή:

--12--12--10--10--9--7--9--10--7-----8--7--6------------------------6--7
--0--------0------------------------8-----------8--7--5--4--5--7--8------
--0--------0--------------------------------------------------------------

--12--12--10--10--9--7--9--10--7-----8--7--6---------------------0
--0--------0------------------------8-----------8--7--5--4--5--0--0
--0--------0-------------------------------------------------------0

Στίχοι

 στην--Ε-λλα-δα--δε-ε---ε-μο-ρω--μια-α--γυ-ναι--αι--κα--για--να--βρω
--0----0--2---2---3--2--3--4--5---3---2--0---2--0--------0--------0--
--0---------------------------------------------------4--------0----0--
--0-----------------------------------------------------------------0--
  
  ε--χει--ό--μο--ρφε--ε--ες--πολ--λες--μα--ει--ναι--μα--α--να--μου--φτω--χες
-7---7---9--9----10--9--10---11--12---10--9---7---9---7---6---7----------7
-0-------0------------------------------------------------------------7-----0
-0-------0------------------------------------------------------------------0

 ε--γω--θε--λω--πρι--γκι--πέ--σσα--α--πο--το--μα--ρο--κο--με--σα
-9--10--12--10---9----7---6--------6--7---8----7---6-------------
-0-------0----------------------8-----------------------8----7---5
-0-------0---------------------------------------------------------

 να--χε--λι--ρα--με--ε--ε--ου--ρα--μια--α--γυ--ναι--αι--κα--μια--φο--ρα
-0---0---2---2---3--2--3---4---5---3---2---0---2---0-------0--------0
-0------------------------------------------------------4-------- 0---0
-0--------------------------------------------------------------------0

και πάλι απο την αρχή...



www.youtube.com/watch?v=J2Wx5ELt-gc


Τίτλος: Απ: Παρτιτούρες για Μπαγλαμά Τζουρά 3χορδο μπουζούκι...
Αποστολή από: nikkortis στις Οκτώβριος 28, 2009, 03:00:27 πμ
mapat1984 δωσε πραμα στον λαο.... και απο Θαναση Παπακωνσταντινου οτι εχετε.... αυτα ειναι \m/


Τίτλος: Η φωνή του αργιλέ (Πέντε χρόνια δικασμένος) (Β. Παπάζογλου - Στ. Περπινιάδης)
Αποστολή από: mapat1984 στις Οκτώβριος 28, 2009, 03:19:30 πμ
Πάμε ακόμα ένα:

"Η φωνή του Ναργιλέ" (πέντε χρόνια δικασμένος...)
Βαγγέλης Παπάζογλου (ή Αγγούρης)

Εισαγωγή

--7--8--10--7--8--5--7--5--4--5--4-----4--5--7
--0----------------------------------6----------
--0---------------------------------------------
                                                                                 x2
--7--8--10--7--8--5--7--5--4--5--4------4-------
--------------------------------------6------6--5
--------------------------------------------------

Στίχοι

πε--ντε--χρο--νια--δι--κα--σμε--νος--με--σα--στο--γε--ντι--κου--λέ
4----5----7----7---7---7---8-----5---8---7----5---7----4----5---7  
-------------------------------------------------------------------      x2
-------------------------------------------------------------------

ά--πο--το--πο--λύ--σε--κλέ--τι--το--ρι--ξα--στο--να--ργι--λε
7--8---10--7---8---5----7---5---4---5--4---------4---5----7
---------------------------------------------6---------------
-------------------------------------------------------------

ά--πο--το--πο--λύ--σε--κλέ--τι--το--ρι--ξα--στο--να--ργι--λε
7--8---10--7---8---5----7---5---4---5--4---------4---------
---------------------------------------------6---------6----5
-------------------------------------------------------------

φυ--σα--ρού--φα--τρα--βα--το--νε--πά--τα--το--νε--κια--ναφ--τό--νε
------------------------4--------7-------------------------4---------
6---5----6----5----6--------5-------6----5--6---5---6----------5---5
----------------------------------------------------------------------

φυ--λα--τσί--λιες--για--τους--βλα--χους--κει--νους--τους--δε--σμο--φυ--λα--κους
-------------------------4-----------7-------------------------------4-----------
6---5----6----5----6--------5-------------6----5-----6-----5---6---------5---5--
----------------------------------------------------------------------------------

και πάλι απ' την αρχή...



www.youtube.com/watch?v=yfukU6ph2N0


Τίτλος: Η Ελένη η ζωντοχήρα [1] (Γ. Εϊντζιρίδης, "Γιοβάν Τσαούς" - Αντώνης Καλυβόπουλος)
Αποστολή από: mapat1984 στις Οκτώβριος 28, 2009, 04:27:29 πμ
Μιας κι έγινε λόγος και για την "ελένη τη ζωντοχήρα", την προσπάθησα μόνος μου και δεν κατάφερα να τη βγάλω...
όμως για καλή μας τύχη βρήκα τις προάλλες αυτό το videάκι στο youtube:

http://www.youtube.com/watch?v=_rYgFeKBOeo&feature=player_profilepage
 
παρακάτω παραθέτω μια προσπάθεια να βγάλω σε ταμπλατούρα μια απλοποιημένη version
της εκτέλεσης αυτής.... όποιος θέλει μπορεί να τη συμπληρώσει / διορθώσει

"Η Ελένη η Ζωντοχήρα" (Γιοβάν Τσαούς)

Εισαγωγή

5--1--3--1-----------1--3--1--3--1------------------
0-----------3--5--5-----------------3--5--0--5--0--5       x2
0--------------0----------------------- 0------------

5--1--3--1-----0--1--3--1--5--1--3--1-------------------  0
0-----------3---------------0-----------3--5--0--5--0--5--0   x2
0---------------------------0--------------0-------------- 0

Στίχοι

η--ε--λέ--νη--ζω--ντο--χη--η--η--η--ρα----ντε--ρτι--έ--χει--η-- κα--κο--μοι--οι--οι--οι--ρα--
3--5--7---7---7----7----7---5--7--3--5--5--3----5---7--8---10--7---5----7---3--5---2---3--3
0-----0-------0---------0----------------0-----------0---------------------------------------0
0-----0-------0---------0----------------0-----------0---------------------------------------0

ε--ναν--γέ--ρο--ο--ά--ντρα--έ-- έ--έ--έ--χει---- κι-- καη--μέ--νη--δε--ε--εν--α--ντέ--ε--ε--ε--χεί
2---3----5---7--8--7----5----7--3--5--0--1---1--0----1---3---5--- 1-- 3-- 1-----------------------  0
---------0-------------------------------------0------------------------------ 3-- 5---0--5--0-- 5---0
---------0-------------------------------------0---------------------------------- 0-----------------0

άλλη μια φορά το ίδιο για τη δεύτερη στροφή...και μετά εισαγωγή...και μετά πάλι το ίδιο...



www.youtube.com/watch?v=OUFkmV3CAcM


Τίτλος: Απ: Παρτιτούρες για Μπαγλαμά Τζουρά 3χορδο μπουζούκι...
Αποστολή από: ΘΟΔΩΡΗΣ στις Οκτώβριος 28, 2009, 08:16:49 πμ
Αααα εμείς πάμε πολύ δυνατά πλέον!Μπράβο σε όλους,βοηθάμε αρκετό κόσμο νομίζω καθώς δεν υπάρχουν πολλές ταμπλατούρες τριχόρδου στο διαδίκτυο...όντως ανεβάστε και ότι μπορείτε από μάλαμα,θανάση,χαίνηδες κτλ να μη μένουμε μόνο σε ρεμπέτικα...

εντός των ημερών θα ανεβάσω από Θανάση Παπακωνσταντίνου τα ''επιτύμβιο'' και ''αγία νοσταλγία'' (κάπως απλουστευμένα αλλά ικανοποιητικά νομίζω)..είναι τα παρακάτω..

http://www.youtube.com/watch?v=YB4LrI30HYE  ------ επιτύμβιο

http://www.youtube.com/watch?v=68vQbV6V31w ------ αγία νοσταλγία



Τίτλος: Απ: Παρτιτούρες για Μπαγλαμά Τζουρά 3χορδο μπουζούκι...
Αποστολή από: nikkortis στις Οκτώβριος 28, 2009, 01:13:02 μμ
ΘΟΔΩΡΗΣ  θα ανεβασεις το επιτύμβιο ??????????? τι λες τωρα ρε φιλε το περιμενω πως και πως και κατι ακομη αυτο το βιντεακι στα κερατα του Ταυρου το εχεις δει ολοκληρο? Μονο για τους πορωμενους του Θαναση!!!!!

mapat1984 Ωραιος!


Τίτλος: Απ: Παρτιτούρες για Μπαγλαμά Τζουρά 3χορδο μπουζούκι...
Αποστολή από: ΘΟΔΩΡΗΣ στις Οκτώβριος 28, 2009, 08:01:14 μμ
Nikkortis ναι το 'κέρατα του ταύρου' είναι 1.5 ώρα ντοκιμαντέρ για τον Θανάση και τους Λαικεδέλικα..το είχα δει όταν είχε προβληθεί πλέον κυκλοφορεί και στο ίντερνετ είναι πολύ ωραίο και καλά γυρισμένο...αύριο θα ανεβάσω επιτύμβιο και αγία νοσταλγία.


Τίτλος: Απ: Παρτιτούρες για Μπαγλαμά Τζουρά 3χορδο μπουζούκι...
Αποστολή από: nikkortis στις Οκτώβριος 28, 2009, 09:50:41 μμ
Nikkortis ναι το 'κέρατα του ταύρου' είναι 1.5 ώρα ντοκιμαντέρ για τον Θανάση και τους Λαικεδέλικα..το είχα δει όταν είχε προβληθεί πλέον κυκλοφορεί και στο ίντερνετ είναι πολύ ωραίο και καλά γυρισμένο...αύριο θα ανεβάσω επιτύμβιο και αγία νοσταλγία.

περιμενω πως και πως !!!! επιτυμβιοοοο...μικρο και γαμω!


Τίτλος: Επιτύμβιο (Θανάσης Παπακωνσταντίνου)
Αποστολή από: ΘΟΔΩΡΗΣ στις Οκτώβριος 29, 2009, 03:57:39 πμ
Μετά το ''παλιά πληγή'' του Θανάση που είχα ανεβάσει παλιότερα,ακολουθεί το ''επιτύμβιο''..(κάτω γραμμή η χοντρή ρε,μεσαία γραμμή η λα και πάνω γραμμλή η λεπτή κάτω ρε του τριχόρδου).

''Eπιτύμβιο'' - Θανάσης Παπακωνσταντίνου,   http://www.youtube.com/watch?v=YB4LrI30HYE

Εισαγωγή

-----------------------------------------0------------0-------------------------
-------------0-1---1--3--1--0--1--3---------------------------------------------
-3-5-3-5---------------------------------------0--------------------------------


--------------2--3--2--5--2--3--2--3--1--3--1------0-------------0--------------
-3-5-3-5-------------------------------------------------------------------------
------------------------------------------------------------0--------------------

-5--7--5-----0--5--9----12--10--9--10--8--7------------------------------------
---------------------------------------------------------------------------------
---------------------------------------------------------------------------------

-5--8--5--0---------------------------------------------------------------------
------------------3--6--3-------------------------------------------------------
------------------------------5--8--5--6--3--5--0-------------------------------

-5--8--5--0----------------------------------------------------------------------
------------------3--6--3--------------------------------------------------------
------------------------------5--8--5--6--3--5--5--5----------------------------

Στίχοι

-------------------------------------------0--------------------------------------
-----------------0--1--3--1--0--1--3---------------------------------------------
-3--5--3--5-----------------------------------------------------------------------

-----------0----------------5----------7--5--8--7--5-----------------------------
-3--5--3--------7--8--7----------8-----------------------------------------------
----------------------------------------------------------------------------------

--8--7--5--4------------------0---13--12--13--15--12----------------------------
-------------------6--5-----------------------------------------------------------
----------------------------------------------------------------------------------

--10-----------10--12-----------10---13---12---10------------------------------
--------13----------------13---------------------------13---12---10-------------
----------------------------------------------------------------------------------

Επανάληψη τα 2 τελευταία και μετά κλείνει πάλι με την εισαγωγή.


Τίτλος: Απ: Παρτιτούρες για Μπαγλαμά Τζουρά 3χορδο μπουζούκι...
Αποστολή από: punkpagour στις Οκτώβριος 29, 2009, 03:52:17 μμ
Μάγκες είστε απλά υπέροχοι...Να ζητήσω κάτι και εγώ?Λοιπόν ένα από τα δυνατά κομμ'ατια ε'ιναι το ότι άναψε θα σβήσει...
http://www.youtube.com/watch?v=AJtnWdD799k ;)


Τίτλος: Απ: Παρτιτούρες για Μπαγλαμά Τζουρά 3χορδο μπουζούκι...
Αποστολή από: nikkortis στις Οκτώβριος 30, 2009, 12:06:09 πμ
ΘΟΔΩΡΗΣ προσπαθω να το βγαλω.... σε αλλα σημεια το παιζω καλα και ακουγετε ωραια... κατι δεν παιζω καλα.... ισως καπου θελει γρηγορα.....εισαι ωραιος!!!παμε γερα!!!


Τίτλος: Απ: Παρτιτούρες για Μπαγλαμά Τζουρά 3χορδο μπουζούκι...
Αποστολή από: ΘΟΔΩΡΗΣ στις Οκτώβριος 30, 2009, 12:44:56 πμ
Φίλε nikkortis θέλει ταχύτητα μεγάλη και εξάσκηση γενικά.....δεν είναι εύκολο...δυστυχώς δεν μπορώ να βάλω χρόνους στην ταμπλατούρα..αλλά αν παιχτεί γρήγορα και καλά βγαίνει πολύ καλά νομίζω.. (το δοκίμασα στο μαγαζάκι που παίζουμε σε ανυποψίαστο χρόνο και ήταν θετικές οι εντυπώσεις)..με μπούσουλα το ταβ που έγραψα αλλά και ακούγοντας το τραγούδι παράλληλα θα το βγάλεις με εξάσκηση..όπου κρίνεις πρόσθεσε ή αφαίρεσε πράγματα βέβαια.


Τίτλος: Απ: Παρτιτούρες για Μπαγλαμά Τζουρά 3χορδο μπουζούκι...
Αποστολή από: nikkortis στις Οκτώβριος 30, 2009, 01:57:47 πμ
Φίλε nikkortis θέλει ταχύτητα μεγάλη και εξάσκηση γενικά.....δεν είναι εύκολο...δυστυχώς δεν μπορώ να βάλω χρόνους στην ταμπλατούρα..αλλά αν παιχτεί γρήγορα και καλά βγαίνει πολύ καλά νομίζω.. (το δοκίμασα στο μαγαζάκι που παίζουμε σε ανυποψίαστο χρόνο και ήταν θετικές οι εντυπώσεις)..με μπούσουλα το ταβ που έγραψα αλλά και ακούγοντας το τραγούδι παράλληλα θα το βγάλεις με εξάσκηση..όπου κρίνεις πρόσθεσε ή αφαίρεσε πράγματα βέβαια.
Ναι ναι φιλε Θοδωρη...αυτο ακριβως λεω και εγω οτι το εχεις βγαλει πολυ καλα και απλα ειναι γρηγορο και πρεπει να το βγαλω και εγω.  ;D Θανασης τα σπαει \m/ δωσε πραμα στον λαο απο Θαναση.....


Τίτλος: Απ: Παρτιτούρες για Μπαγλαμά Τζουρά 3χορδο μπουζούκι...
Αποστολή από: ΡΕΜΠΕΤΗΣ στις Οκτώβριος 30, 2009, 03:27:33 μμ
Παιδες καλησπερα, λεγομαι Γιωργος και ειμαι καινουριος στην παρεα σας
μου αρεσει η προσπαθεια σας και θελω μα συμμετεχω κ εγω, ελπιζω ναμε δεχτειτε
απο οτι ειδα πιο παλια καποιος ζητησε τον ψαρα
για αρχη λοιπον θα ανεβασω τον "ψαρα" και στη συνεχεια το "πινω και μεθω"
μονο καντε λιγο υπομονη μεχρι την κυριακη που θα εχω λιγο χρονο

α!  και απο ρεπερτοριο εχω αρκετα μεγαλο


Τίτλος: Απ: Παρτιτούρες για Μπαγλαμά Τζουρά 3χορδο μπουζούκι...
Αποστολή από: ΘΟΔΩΡΗΣ στις Οκτώβριος 30, 2009, 03:52:12 μμ
Γεια σου φίλε Γιώργο!!Φυσικά και είσαι ευπρόσδεκτος....!!Να μαζευόμαστε πολλοί σιγά σιγά...και περιμένουμε το 'πίνω και μεθώ' που όντως το είχαμε ξεχάσει...ρε παίδες έχει ασχοληθεί κανείς με το 'παράτα τα' του Άσιμου να μας το παραθέσει??   http://www.youtube.com/watch?v=lZqKAv6zmLc


Τίτλος: Ο σαλταδόρος [1] (Μιχάλης Γενίτσαρης)
Αποστολή από: kostas sinaplidis στις Νοέμβριος 01, 2009, 02:17:51 μμ
Γεία σας φίλοι του ρεμπέτικου! Καλώς σας βρήκα!
Ψάχνω το « Άτακτη» του Μ. Βαμβακάρη και το «Παραπονιάρικο» του Χατζηχρήστου... αν μπορεί κάποιος να βοηθήσει...
Με τη σειρά μου, βάζω το «Ο Σαλταδόρος» του Γενίτσαρη. Η ταμπλατούρα δεν έγινε από μενα αλλα από ένα αλλο παιδί που είχε την καλοσύμη να μου την στείλει. Καλή εξάσκηση!!
Loipon o dromos einai Re xitzaz diladi Stin Xordi Re (tin kato kato -pio lepti) Tasta: 0,
1,4,5,7,8,10,12. Oti sas vazo se parenthesi einai i xordi gia to noumero pou akolouthei.
To tragoudi paei          
 (Re) 4-4-4-4 (la) 5 (re) 4 (la)5 - 6-5-3-6-  5    ayto paizetai dio fores tin proti kleinei me    (Re pano pano xontri) 7 (la)5 x treis fores , tin defteri me (la) 3-5-6 (re) 4 (la)6
(re) 4-5-7      to girismataki tis eisagogis einai  (re) 5-4-5-7-9-10-9-10-9   10---glistrima sto 13  meta 13-12-10-8-7-5-4    5-4 (la)6 (re)4-5-4 (la)6 (re)4 (la)5  kai grigoro katevasma stin re xordi   12-10-8-7-5-4  (la) -6-5   (xontri pano Re) 7   (la)5
sta logia paei  (re) 10-9-10-9-10-9   10----glistrima 13   13-12-10-8-7-5-  4-5-4 (la) 6 (re) 4 (la) 5  AFTO ME TELIOMA  3-5-6   (RE) 4  (LA)6 (RE) 4-5-7  KAI TIN DEFTERI FORA ME TELEIOMA TO KATEVASMA TIS EISAGOGIS.
TO REFRAIN  (re) 4 (la) 5 (re) 4 (la) 6-5-3-6-5 (an thelete valte kai to 7 tis hondris opos stin eisagogi)



www.youtube.com/watch?v=YHjLgGJYDa8


Τίτλος: Απ: Παρτιτούρες για Μπαγλαμά Τζουρά 3χορδο μπουζούκι...
Αποστολή από: nikkortis στις Νοέμβριος 01, 2009, 05:58:05 μμ
Γεία σας φίλοι του ρεμπέτικου! Καλώς σας βρήκα!
Ψάχνω το « Άτακτη» του Μ. Βαμβακάρη και το «Παραπονιάρικο» του Χατζηχρήστου... αν μπορεί κάποιος να βοηθήσει...
Με τη σειρά μου, βάζω το «Ο Σαλταδόρος» του Γενίτσαρη. Η ταμπλατούρα δεν έγινε από μενα αλλα από ένα αλλο παιδί που είχε την καλοσύμη να μου την στείλει. Καλή εξάσκηση!!
Loipon o dromos einai Re xitzaz diladi Stin Xordi Re (tin kato kato -pio lepti) Tasta: 0,
1,4,5,7,8,10,12. Oti sas vazo se parenthesi einai i xordi gia to noumero pou akolouthei.
To tragoudi paei         
 (Re) 4-4-4-4 (la) 5 (re) 4 (la)5 - 6-5-3-6-  5    ayto paizetai dio fores tin proti kleinei me    (Re pano pano xontri) 7 (la)5 x treis fores , tin defteri me (la) 3-5-6 (re) 4 (la)6
(re) 4-5-7      to girismataki tis eisagogis einai  (re) 5-4-5-7-9-10-9-10-9   10---glistrima sto 13  meta 13-12-10-8-7-5-4    5-4 (la)6 (re)4-5-4 (la)6 (re)4 (la)5  kai grigoro katevasma stin re xordi   12-10-8-7-5-4  (la) -6-5   (xontri pano Re) 7   (la)5
sta logia paei  (re) 10-9-10-9-10-9   10----glistrima 13   13-12-10-8-7-5-  4-5-4 (la) 6 (re) 4 (la) 5  AFTO ME TELIOMA  3-5-6   (RE) 4  (LA)6 (RE) 4-5-7  KAI TIN DEFTERI FORA ME TELEIOMA TO KATEVASMA TIS EISAGOGIS.
TO REFRAIN  (re) 4 (la) 5 (re) 4 (la) 6-5-3-6-5 (an thelete valte kai to 7 tis hondris opos stin eisagogi)




ωραιος φιλε απλα λιγο ζαλιστικα ετσι οπως τα εχεις βαλει... εαν θελεις δες πως βαζουμε εμεις τις ταμπλατουρες και σχεδιασε την ετσι και εσυ. εχουμε δυο τροπους... ειτε με τις γραμμες που υποδουλωνουν σε ποια χορδη παταμε ειτε με τις παρενθεσεις .....εαν θελεις παντα! ;D


Τίτλος: Ο ψαράς (Γιώργος Μητσάκης - Στράτος Παγιουμτζής, "Τεμπέλης")
Αποστολή από: ΡΕΜΠΕΤΗΣ στις Νοέμβριος 03, 2009, 12:20:55 πμ
Καλησπερα, σας ειχα υποσχεθει καποια τραγουδια
αρχιζω λοιπον με τον "ψαρα"
καλες πενιες σε ολους

"ο ψαρας"

15-14-12-----------12-14-15-12-14---12-12-12-12-12   }
----------15-14-15-----------------15----------------   }   Χ2
------------------------------------------------------   }


10-10-9-10-12-12-12-10-12-12-10-8-7-8-5-7-3---3-2-3-5-7-3-5-2-3-0-2-----2-3-5-7
-------------------------------------------------------------------------3-5---------
-------------------------------------------------------------------------------------


10-10-9-10-12-12-12-10-12-12-10-8-7-8-5-7-3---3-2-3-5-7-3-5-2-3-0-2-------------
-------------------------------------------------------------------------3-5-5-5-5-5
-------------------------------------------------------------------------------------

Στίχοι
9-10-12--12--12--10-8-7-7-7-7-7-7  }
------------------------------------  }  Χ2
------------------------------------  }


10-10-9-10-12-12-12-10-12-12-10-8-7-7-7-7-7
-----------------------------------------------
-----------------------------------------------


5--5-5-7--7--9--9-10-10-9-10-10-10-10-10  }
-------------------------------------------  }  Χ2
-------------------------------------------  }


9-10-12--12-10-12-12-10-9-7-9-5-7-3--3-2-3-5-7-3-5-2-3---2-----2-3-5-7
-----------------------------------------------------------5---3-5--------
---------------------------------------------------------------------------


9-10-12--12-10-12-12-10-9-7-9-5-7-3--3-2-3-5-7-3-5-2-3---2-------------
-----------------------------------------------------------5---3-5-5-5-5-5
---------------------------------------------------------------------------



www.youtube.com/watch?v=PHmMjI9QGY8


Τίτλος: Πίνω και μεθώ (Σπύρος Περιστέρης - Ζαχαρίας Κασιμάτης)
Αποστολή από: ΡΕΜΠΕΤΗΣ στις Νοέμβριος 03, 2009, 01:16:38 πμ
"Πίνω και μεθώ"

14--12--10--9--7--5--4-----------4-5-7-5-4-5--7--9      }
-------------------------7--7-5-7-------------------      }
----------------------------------------------------       }
                                                                                }       Χ2    
14--12--10--9--7--5--4-----------4-5-7-5-4-5---4---     }
-------------------------7--7-5-7--------------7--5-7    }
------------------------------------------------------    }


-------------
--7----7-7-7
9----9--9-9-


Στίχοι
7-9-9--9-7-9--9-10-11-12-10-10-9-9-7-7-5-7--5-7-9-5-7-5-4-4-2-0-5--0-5-0-5-0-5
------------------------------------------------------------------------------------
------------------------------------------------------------------------------------


4-5-7--7-5-7-7-7-0-5-0-7-9-7--5-7-5-4-4-2-2-0-5--0-5-0-5-0-5
----------------------------------------------------------------
----------------------------------------------------------------



4-5-7--7-5-7-7-7-0-5-0-7-9-7--5-7-5-4-4-2-2-0-2-------------
----------------------------------------------------------------
----------------------------------------------------------------



www.youtube.com/watch?v=H619qS24qdU


Τίτλος: Απ: Παρτιτούρες για Μπαγλαμά Τζουρά 3χορδο μπουζούκι...
Αποστολή από: antifas στις Νοέμβριος 03, 2009, 12:00:35 μμ
Φχαιστώ πολύ παιδιά! Να 'στε καλά! Θα γράφα και γώ άμα ήξερα αλλά είμαι τελείως άσχετος, ακομά και με ταμπλατούρα με δυσκολία τα παίζω!  ;D ;D .  Το λαθρέμπορο του Καμβύση, μπορει να τον βγάλει κανείς? Ορίστε κι ένα βίντεο με μια πρόσφατη εκτέλεση https://youtube.googleapis.com/v/WhS-dvIut04%26hl=en%26fs=1%26


Τίτλος: Απ: Παρτιτούρες για Μπαγλαμά Τζουρά 3χορδο μπουζούκι...
Αποστολή από: ΘΟΔΩΡΗΣ στις Νοέμβριος 03, 2009, 09:11:46 μμ
Ωραίος ΡΕΜΠΕΤΗ!!!!!!

Πέρα του 'λαθρέμπορα', δοκιμάστε κάποιος και το παραδοσιακό μικρασιάτικο 'κανελόριζα'!

εδώ μία εκτέλεση από τον τζιμάκο..

http://www.youtube.com/watch?v=yLG3eXIDkJA&feature=related


Τίτλος: Άτακτη (Μάρκος Βαμβακάρης)
Αποστολή από: ΡΕΜΠΕΤΗΣ στις Νοέμβριος 04, 2009, 01:26:13 πμ
Απο το φιλο μας Κωστα ζητηθηκε η "αταχτη" προχθες.
Σας την παραθετω

"Αταχτη"             (Μ. Βαμβακαρης)

11-12---8-7-5-4-5-7-5-4--------------4-5-7-8-11-12-13--16-13-12-11-12-13-12-11-13-12---
--------------------------6-5---4-5-6-------------------------------------------------------
---------------------------------------------------------------------------------------------



11-12---8-7-5-4-5-7-5-4--------------4-5-7-5-4-------7-8-7-5-4-------16-16-16-16--
--------------------------6-5---4-5-6------------6-5-------------6-5---17-17-17-17--
--------------------------------------------------------------------------------------


Στίχοι
12--11--8--11--12--13-12-11-13-12----13-12-11-12-13-16-16-16-12-13-12-11-8-7--7-4-7--
-------------------------------------------------------------------------------------------5
--------------------------------------------------------------------------------------------


12--11--8--11--12--13-12-11-13-12----13-12-11-12-13-16-16-16-12-13-12-11-8-7--7-8-7-5-4-----
-----------------------------------------------------------------------------------------------6-5-
---------------------------------------------------------------------------------------------------


----4-5-7-8-11-12---12-12-12-13--16-13-12-11-12-13-12-11-13-12----4
5-6----------------------------------------------------------------5-6--
------------------------------------------------------------------------


5--4-----------4------------4-5-7-8-5-7-4-5--4------4-5-
-----6-5-4-5-6--6-5-5--5-6------------------6-5-5-6-----
----------------------------------------------------------


5-5-5-5--(7-8)--8-8-8-8--11-11-12-8-7-7---4-7-5-4-5-6-7------4-5-7-4-5--
------------------------------------------------------------5-6-------------
----------------------------------------------------------------------------


5-5-5-5--7-8-8--8-7-7--8-7--5--4-------12-11-8-7-5-4-----
------------------------------------6--5----------------6-5          (απο την αρχη)
------------------------------------------------------------



www.youtube.com/watch?v=thVzGTL0VzY


Τίτλος: Ο σαλταδόρος [2] (Μιχάλης Γενίτσαρης)
Αποστολή από: kostas sinaplidis στις Νοέμβριος 04, 2009, 03:21:04 μμ
Ευχαριστω τον φίλο Γιώργο για την «αταχτη»!!!

ξανα ο «Σαλταδορος» σε καλυτερη μορφη (αν υπαρχουν λαθη, διορθωστε...).

Εισαγωγη:

4-4-4-4--4-----------------------
--------5--5 - 6-5-3-6- 5---5-5-5
--------------------------7-------

4-4-4-4--4-----------------------4--4-5-7
--------5--5 - 6-5-3-6- 5- 3-5-6---6------
------------------------------------------

Γυρισμα της εισαγωγης:
5-4-5-7-9-10-9-10-9- 10---glissando 13- 13-12-10-8-7-5-4-  5-4---4-5-4---4---12-10-8-7-5-4--------
-----------------------------------------------------------------6--------6--5---------------- 6-5---5
----------------------------------------------------------------------------------------------------7

Στίχοι:
10-9-10-9-10-9   10----glissando 13-  13-12-10-8-7-5-  4-5-4---4-----------4----4-5-7
--------------------------------------------------------------6---5- 3-5-6----6-------
---------------------------------------------------------------------------------------

10-9-10-9-10-9   10----glissando 13-  13-12-10-8-7-5-  4-5-4---4-----12-10-8-7-5-4
--------------------------------------------------------------6---5------------------6-5----5
------------------------------------------------------------------------------------------7
Ρεφρεν:
4---4--------------        
--5---6-5-3-6-5---



www.youtube.com/watch?v=YHjLgGJYDa8


Τίτλος: Ματσάκια πεντοχίλιαρα (Μάρκος Βαμβακάρης - Απόστολος Χατζηχρήστος)
Αποστολή από: staurakas στις Νοέμβριος 04, 2009, 06:11:36 μμ
Mpravo paidia poli kali doulia!
Efharisto stous kainourgious pou anevazoun kalo pragma

Matsakia pentohiliara

M Vamvakari


12--(12)--(13)-(12)-(13)-11-(12)-0-(12)-0-(12)—(9)---(10)--(9)--(10)-(9)-(10)-11)-(12)-(9)-0

(9)-(12)-

(12)-(13)-11-12-(12)-(13)-(12)-(13)-11-(12)-0-(12)-0-(12)-(12)-(13)-10-(13)-(13)

-(12)-(12)-(10)-(10)-(9)-(9)-(0)-0-

2x

Logia

Ma  tsa   kia    pe    nto   hi            lia          ra   thesgia  na   tin     pe    ra    seis             ot
(12)-12-(12)-(13)-(10)-(12)-(13)-(12)--(10)-(9)-(9)-(10)-(9)-(10)-(12)-(13)-(12)-0-(9)-0-(12)-

 tan  ka    la
12-(12)-(13)

  ka    la           ske      ftheis  vre   ta     mia   la  tha    ha      seis kio  tan ka    la     ka    la
(10)-(12)-(13)-(12)-(10)-(9)-(10)-(12)--(10)-(9)-(6)-    4--(6)-0-(12)-12-(12)-(13)-(10)-(12)

         ske   . . . . . .                                                            
-(13)-(12)-(10)-(9)-(9)-(10)-(9)-(10)-(12)-(13)-(12)-(12)(12)-(13)--(14)-10-10-10-10-10-(13)-

(12)-(10)-


(9)-(6)-(5)-7-4-(6)-4-(6)-(5)-



www.youtube.com/watch?v=mezdDdBnUr0


Τίτλος: Μες στη φυλακή που μπήκα [1] (Μιχάλης Γενίτσαρης)
Αποστολή από: ΡΕΜΠΕΤΗΣ στις Νοέμβριος 04, 2009, 10:34:52 μμ
Παιδια ενα ωραιο τραγουδι ειναι το   "μεσ τη φυλακη που μπηκα"  του Γενιτσαρη
οποιος δεν το ξερει μπορει να το ακουσει εδω      
http://www.youtube.com/watch?v=1TadnMNq3rI
Δικο σας

"Μες τη φυλακη που μπηκα"

---------------4-5-4-------4-5-7-----------------------4-5-4---------------
5--5-5-6--6-6-------6-5-6---------------5--5-5-6--6-6-------6-5-0-5-0-5--
----------------------------------------------------------------------------


12-11-8-7-5-4-5-7-5-8-7-5-4-------4-5-7-8--12-11-8-7-5-4-5-7-5-8-7-5-4--------------
------------------------------6-5-6----------------------------------------6-5-0-5-0-5--
-----------------------------------------------------------------------------------------


Στίχοι
4-5-7--7--7-5-4------7--7-----7-7-11-8-7-5-4-5-4---------
-----------------6-5-------------------------------6-5--5--
------------------------------------------------------------


4-5-7-8-12-11-8-7-5-4-5-4---------------
----------------------------6-5-0-5-0-5--
------------------------------------------


4--------------4-----------4-5-7----------------------4-------------------
--5-6-4-5--5----5-6-4-5-6---------------5-5-5-3-5-6---5-6-4-5-0-5-0-5--
---------------------------------------------------------------------------


----------4-----------4-5-7-------------------4-------------------
5-5-5--6---5-6-4-5-6------------5-5-5-3-5-6---5-6-4-5-0-5-0-5--
-------------------------------------------------------------------


Τίτλος: Απ: Παρτιτούρες για Μπαγλαμά Τζουρά 3χορδο μπουζούκι...
Αποστολή από: punkpagour στις Νοέμβριος 06, 2009, 12:25:45 μμ
Ωραίος ρε μάγκα με έφτιαξες πρωί πρωί.Πάντα τέτοια μάγγες...


Τίτλος: Γεροντόμαγκα ντερβίση (Μιχάλης Γενίτσαρης)
Αποστολή από: ΡΕΜΠΕΤΗΣ στις Νοέμβριος 08, 2009, 08:09:32 μμ
"ΓΕΡΟΝΤΟΜΑΓΚΑ ΝΤΕΡΒΙΣΗ"   (Μ. Γενίτσαρη)      
http://www.youtube.com/watch?v=ZRGt5zDckVk


-----------------12---7-10-8-7-5--12-13-15-13-12-12-12-12-12--
15-13-12-13-15--0-----------------------------------------------
-----------------0-----------------------------------------------


12---7-10-8-7-5--12-13-15-13-12-12-12-12-12--
-0----------------------------------------------
-0----------------------------------------------


7-8-10-8-7-8-7-5--5------------5-7-----7-8-10-8-7-7-8-7-5--5-----------5-------
------------------8--8-6-5-6-8------------------------------8--8-6-5---5--8-6-5--
--------------------------------------------------------------------------------0--



Στίχοι
----7--7--8-7-5--12--7------10-8-7--7-5---5-------------
5-5---------------------------------------8--8-6-5--5----
----------------------------------------------------------


7-8-10-8-7-8-7-5--5-------------
------------------8-8-6-5--5--5--
------------------------0--0--0--


-------------5------------5-7---------------5--------------  }
-3-5-6-5-3---8-6-5-5-6-8-------3-5-6-5-3---8-6-5-5--5---   }   Χ2
-----------------------------------------------------------   }



Τίτλος: Το βαπόρι απ' την Περσία (Βασίλης Τσιτσάνης)
Αποστολή από: kostas sinaplidis στις Νοέμβριος 09, 2009, 01:12:54 μμ
Το βαπόρι από την Περσία

17-15-15-15-17-15-15-15-17-15-13-12----13-12--12       }x2
----------------------------------------5-----------       }x2
----------------------------------------------------    

8---8-10-12---8-----------------8-10
-----------------11-10-8-11-11------
-------------------------------------

8---8-10-12---8-----------------12----12----12
-----------------11-10-8-10-10-----13----11---
------------------------------------------------

---------10--10-10-10-10-8-10-12---12     }x2
10---10--------------------------------     }x2
---------------------------------------

8---8-10-12-8-10-8-------8--8--8---8-10-12-8-10-8------------------8--8-10-12--8-----------------------
--------------------11-10----------------------------11-10-10-10-10----------------11-10-8-11-10-10--10
-----------------------------------------------------------------------------------------------------------


8---8-10-12-8-10-8-------8--8--8---8-10-12-8-10-8------------------8--8-10-12--8-10-8---------------
--------------------11-10----------------------------11-10-10-10-10---------------------11-10-10-10-10
---------------------------------------------------------------------------------------------------------

από την αρχή...



www.youtube.com/watch?v=ZOD0oK-R8hg


Τίτλος: Απ: Παρτιτούρες για Μπαγλαμά Τζουρά 3χορδο μπουζούκι...
Αποστολή από: nikkortis στις Νοέμβριος 09, 2009, 11:19:12 μμ
μπραβο ρε παιδια.... πολλα μαζεμενα και δεν ειχα χρονο για να τα προσπαθησω... μπραβο!


Τίτλος: Απ: Παρτιτούρες για Μπαγλαμά Τζουρά 3χορδο μπουζούκι...
Αποστολή από: kostas sinaplidis στις Νοέμβριος 11, 2009, 10:56:45 πμ
Παιδια... μπορω να σας ζητησω βοηθεια για αυτα τα δυο τραγουδια:


‘‘ Ταξιμι ζειμπεκικο‘‘ του Μαρκου

http://www.youtube.com/watch?v=83gLfxJb5UI&feature=related


‘‘Σαν απόκληρος γυρίζω ‘‘ του Τσιτσάνη

http://www.youtube.com/watch?v=Rzfw_qyjeFo&feature=related

ευχαριστω!


Τίτλος: Απ: Παρτιτούρες για Μπαγλαμά Τζουρά 3χορδο μπουζούκι...
Αποστολή από: ΡΕΜΠΕΤΗΣ στις Νοέμβριος 11, 2009, 04:38:28 μμ
Παιδια... μπορω να σας ζητησω βοηθεια για αυτα τα δυο τραγουδια:

‘‘ Ταξιμι ζειμπεκικο‘‘ του Μαρκου http://www.youtube.com/watch?v=83gLfxJb5UI&feature=related

‘‘Σαν απόκληρος γυρίζω ‘‘ του Τσιτσάνη http://www.youtube.com/watch?v=Rzfw_qyjeFo&feature=related

ευχαριστω!


Φίλα Κώστα το "ταξιμι ζειμπέκικο" που ζητάς δεν είναι άλλο από το γνωστό ζειμπέκικο "Ο Βοτανικός"  (τώρα το ταξίμι είναι αυτοσχεδιασμός και για να αποδοθεί σε ταμπλατούρα είναι ιστορία)
Πάντως το βράδυ θα έχεις και το ¨"Βοτανικό" και το "Σαν απόκληρος γυρίζω"


Τίτλος: Απ: Παρτιτούρες για Μπαγλαμά Τζουρά 3χορδο μπουζούκι...
Αποστολή από: punkpagour στις Νοέμβριος 11, 2009, 07:39:32 μμ
Ρε παίδες προσπαθώ εδώ και μέρες να βγάλω το ότι άναψε θα σβήσει.Αλλά κολλάω στην εισαγωγή.Το έχει καταφέρει κάποιος ώστε να μου στείλει την εισαγωγή?


Τίτλος: Το παράπονο του ξενιτεμένου (Σαν απόκληρος γυρίζω) (Β. Τσιτσάνης - Σ. Μπέλλου)
Αποστολή από: ΡΕΜΠΕΤΗΣ στις Νοέμβριος 11, 2009, 09:49:25 μμ
"ΣΑΝ ΑΠΟΚΛΗΡΟΣ ΓΥΡΙΖΩ"  - Β. ΤΣΙΤΣΑΝΗΣ

5--5-4-5--7--8-10-8-7-8-8-8-8-8--8-8-10-10-10-12-12-12-12-12-7-8-7-5--------
--------------------------------------------------------------------------8-7-5--
---------------------------------------------------------------------------------


--------5--7-7-7-7-7-7-7-----5----------------------------7-8-10
-7--8----------------------7---8-8-7-5-4-5--5-0-5--5-0-5--------
------------------------------------------------------------------

Στίχοι
12------10------8--8--10--8--7----7----7-8-10  }
-----------------------------------------------  }  Χ2
-----------------------------------------------  }


12-12-12-12-12-12-12-12-10-10-10-10-10-10-10-10-8-8-8-8-10-8-8-7-7--7-8-7-8-10-8-12-10-8-7
--------------------------------------------------------------------------------------------------
--------------------------------------------------------------------------------------------------


5--5-4-5--7--8-10-8-7-8-10-8-7-8--8--10--10--12----7-8-7-5----------
----------------------------------------------------------------8-7-5--
------------------------------------------------------------------------


------5--7--7--7--------------------------5--7-10-8-7
7--8----------------7--8-7-5-4-5--5-7-8--------------
-------------------------------------------------------


5--5-4-5--7--8-10-8-7-8-10-8-7-8--8--10--10--12----7-8-7-5----------
----------------------------------------------------------------8-7-5--
------------------------------------------------------------------------


------5--7--7--7-----------------------------------
7--8----------------7--8-7-5-4-5--5-0-5--5-0-5----
----------------------------------------------------



www.youtube.com/watch?v=Wie-l1Lj6Jg


Τίτλος: Ο μάγκας του Βοτανικού (Σπύρος Περιστέρης - Ζαχαρίας Κασιμάτης)
Αποστολή από: ΡΕΜΠΕΤΗΣ στις Νοέμβριος 12, 2009, 12:56:54 πμ
"Ο ΒΟΤΑΝΙΚΟΣ"      (ΕΝΑΣ ΜΑΓΚΑΣ ΣΤΟ ΒΟΤΑΝΙΚΟ)

(οι κόκκινες νότες παίζονται πολυ γρήγορα)

----------------------9-----------------------9----------------------9--10--12-10-9---------------
5-7-9-10-11-10-9-10--11-10-9-10-11-10-9-10--11-10-9-10-11-10-11----------------11-10-9-7-9-10
----------------------------------------------------------------------------------------------------


12-10-9------------------------9------------------------9----------------------------------
--------11-10-9-10-11-10-9-10--11-10-9-10-11-10-9-10--11-10-9-10-11-11-10-10-9-9-7-7-
--------------------------------------------------------------------------------------------


-----------9--9--------------
7-9-10-11------11-10-9-7----
-----------------------------



Στίχοι
--9-11-12--11--9------12-11-12-14-9------12-14-14-14-14-14-14-14-14-12-11-10-9--
-------------------12-----------------------------------------------------------------
--------------------------------------------------------------------------------------


--9-11-12--11--9------12-11-12-14-9------12-14-14-14-14-14-14-14-14-9-10-9-10-11
-------------------12-----------------------------------------------------------------
--------------------------------------------------------------------------------------


12-14-10-12-9-10---9---------------------------------------------9-10-9---------------14
------------------11--10-11-11-10-10-9-9-7-7--7----5-7-9-10-11---------11-10-9-10-----
------------------------------------------------------------------------------------------


12-14-10-12-9-10-----9------------------------------------------9-10-9----------------------
--------------------11-10-11-11-10-10-9-9-7-7--7---5-7-9-10-11--------11-10-9-7-5-7-9-10-
----------------------------------------------------------------------------------------------


----------9-----------------9--------------9--10--9-------------------12-10-9--------
10-10-11----11---10-10-11----11---10-11------------11--10-9-7-9-10---------11-10-9
---------------------------------------------------------------------------------------


-----------9--------------9--------------------------------14-12-10-9---------------4
10--10-11----11---10-11-----11--10-11-11-10-10-9-9-7-7-------------11-10-9-7-5-7-
---------------------------------------------------------------------------------------


5-0-6-0-9-0-6-0-5-0-6-0-9-0-6-0--5-6-9--10--9-------------------12-10-9--------
--------------------------------------------------11--10-9-7-9-10---------11-10-9
------------------------------------------------------------------------------------


---0-6-0-9-0-6-0-5-0-6-0-9-0-6-0-5-6-6-5-5-4-4-2-2-14-12-10-9-----------
10----------------------------------------------------------------11-10-9-7    από την αρχή
----------------------------------------------------------------------------



www.youtube.com/watch?v=KuyIPixP3gg


Τίτλος: Απ: Παρτιτούρες για Μπαγλαμά Τζουρά 3χορδο μπουζούκι...
Αποστολή από: Snake στις Νοέμβριος 15, 2009, 01:49:18 μμ
Τι εγινε εδω βρε παιδια?!!!!
Συγχαρητηρια για την προσπαθεια που γινεται.
Αν καποιος ξερει το Φεγγαρι αν εισαι Λαμπερο του Μαρκου, θα ημουν ευγνωμων!!!!!


Τίτλος: Απ: Παρτιτούρες για Μπαγλαμά Τζουρά 3χορδο μπουζούκι...
Αποστολή από: philipas στις Νοέμβριος 16, 2009, 07:28:34 μμ
Καλησπερα παιδια!!!Προσπαθω να βγαλω τα μπλε τα παραθυρα του μαρκου που ειναι ανεβασμενο πιο πριν αλλα δεν μου βγαινει ,σα να παιζω αλλο τραγουδι να το δουμε λιγακι???ειναι φοβερο το τραγουδι!!! ;D


Τίτλος: Απ: Παρτιτούρες για Μπαγλαμά Τζουρά 3χορδο μπουζούκι...
Αποστολή από: bill στις Νοέμβριος 19, 2009, 05:03:42 μμ
ρε παιδιά μήπως έχει και κανείς του Αγγελάκα το σιγά μην κλάψω;


Τίτλος: Απ: Παρτιτούρες για Μπαγλαμά Τζουρά 3χορδο μπουζούκι...
Αποστολή από: *MadmaX* στις Νοέμβριος 20, 2009, 05:08:18 μμ
Καλησπέρα αδέρφια τρίχορδοι! Το παλεύω κι εγώ εδώ και σκάρτα ένα χρόνο με το τζουραδάκι μου κι έχω Βγάλει κάποια κομμάτια. Η προσπάθειά σας με βοηθησε πολύ κι είπα να συμμετάσχω. Αρχικά, θ 'ανεβάσω τα "παραθύρια" για τον φίλο που το ζήτησε. Είναι βγαλμένο από παρτιτούρα (ψιλοδιαβάζω λίγο). Θα τα λέμε συχνά, ελπίζω :)


Τίτλος: Απ: Παρτιτούρες για Μπαγλαμά Τζουρά 3χορδο μπουζούκι...
Αποστολή από: thodoris στις Νοέμβριος 20, 2009, 08:44:52 μμ
      καλησπερα μαγκες,εγω ειμαι πολυ νεος στο χωρο(τρεις μηνες εχω το τζουραδακι μου) αλλα το συγκεκριμενο θεμα με βοηθησε αρκετα κ μου εδωσε υλικο ν'ασχοληθω.τελευταια πηρα κ ενα βιβλιο με ρεμπετικα απο το 22 μεχρι το 40.εκει ειδα κ την υπογα του Μπεζου καπως διαφορετικα παιγμενη σε σχεση με αυτην που εχετε γραμμενη εδω κ ειπα να τη στειλω κ ο καθενας ας το παιζει οπως θελει..


Τίτλος: Στην υπόγα (Κώστας Μπέζος, "Α. Κωστής")
Αποστολή από: thodoris στις Νοέμβριος 20, 2009, 08:57:07 μμ
   εχουμε κ λεμε.... "η υπογα"

    Εισαγωγη
(3)    0    2    3    4    4    3 3 3    2    0    3        3        3
3 2   3    4    7 7    3    4    2    3    4 3    0    2    3        3        3
4    3    4    3    3 4    3    4    3    2 3    2    3    4        3        2
(3 3)    0    2    3    3 4    4    2    3    3 0    2    (3)    0        0        0
10 10    8    10    7    8 10 8 7    4    3    3 2    0    2    3________10        10
10 10    8    10    7    8 10 8 7    4    3    3 2    0    2    3                3             3
4 4    3    4    3    3 4    3    4    3    2 3    2    0    4       3        2
(3 3)    0    2    3    3 4    4    2    3    3 0    2    (3)    0           0           0

Λογια

(3)    0    2    3    4    4    3 3 3    2    0    2    3          3          3
2    3    4    7    3    4    2    3    2    0    2    3          3            3
4    3    4    3    3 4    3    4    3    2 3    2    0    4          3         2
(3 3)    0    2    3    3 4    4    2    3    3 0    2    (3)    0            0          0



www.youtube.com/watch?v=i-sxRU7nnO0


Τίτλος: Τα μπλε παράθυρά σου [1] (Μάρκος Βαμβακάρης, "Φράγκος")
Αποστολή από: *MadmaX* στις Νοέμβριος 20, 2009, 09:59:04 μμ
«Τα μπλε παράθυρα»

ΕΙΣΑΓΩΓΗ

4-4-0-2-2-0---9-7-5-5-4-2-0-4-2-0-----------2-4-0
------------------------------------4-2-4-5-------
---------------------------------------------------

4-4-0-2-2-0—9-7-5-5-4-2-0-4-2-0----------------
--------------------------------------------4-2---2-----2
-------------------------------------------------4----4---

ΤΡΑΓΟΥΔΙ

---4-0-2-0-2-0-2-4-5-4-7-5-4-2-4-4
3-------------------------------------------  (2 ΦΟΡΕΣ)
--------------------------------------------

4-5-4-2-0-2-0-2-4-5-4-2-0-2-2
---------------------------------------
---------------------------------------

0-2-4-5-4-7-5-4-2-4-2-0---------
-------------------------------4-2-2-2
----------------------------------------
 ;)



www.youtube.com/watch?v=CPYwCdRL8GU


Τίτλος: Απ: Παρτιτούρες για Μπαγλαμά Τζουρά 3χορδο μπουζούκι...
Αποστολή από: bill στις Νοέμβριος 21, 2009, 02:43:17 μμ
   εχουμε κ λεμε.... "η υπογα"

    Εισαγωγη
(3)    0    2    3    4    4    3 3 3    2    0    3        3        3
3 2   3    4    7 7    3    4    2    3    4 3    0    2    3        3        3
4    3    4    3    3 4    3    4    3    2 3    2    3    4        3        2
(3 3)    0    2    3    3 4    4    2    3    3 0    2    (3)    0        0        0
10 10    8    10    7    8 10 8 7    4    3    3 2    0    2    3________10        10
10 10    8    10    7    8 10 8 7    4    3    3 2    0    2    3                3             3
4 4    3    4    3    3 4    3    4    3    2 3    2    0    4       3        2
(3 3)    0    2    3    3 4    4    2    3    3 0    2    (3)    0           0           0

Λογια

(3)    0    2    3    4    4    3 3 3    2    0    2    3          3          3
2    3    4    7    3    4    2    3    2    0    2    3          3            3
4    3    4    3    3 4    3    4    3    2 3    2    0    4          3         2
(3 3)    0    2    3    3 4    4    2    3    3 0    2    (3)    0            0          0


σε ποια χορδή τα παίζεις;;


Τίτλος: Βαρέθηκα τις γκόμενες (Ο καλόγερος) (Μάρκος Βαμβακάρης - Ρόζα Εσκενάζη)
Αποστολή από: *MadmaX* στις Νοέμβριος 21, 2009, 03:03:54 μμ
ΒΑΡΕΘΗΚΑ ΤΙΣ ΓΚΟΜΕΝΕΣ (Ο ΚΑΛΟΓΕΡΟΣ)
(Μ. ΒΑΜΒΑΚΑΡΗΣ)

ΕΙΣΑΓΩΓΗ
------------2------------------(3-3)-3-6-6-7-6-3-2-3-2-
4-5-(5-5)------4-(4-4)-1-0------------------------------
---------------------------------------------------------

-------------2------------------5-5-4-5-6-7-3-2-0-3-2-0----------2-2-2-----------------------------
4-5-(5-5)-----4-(4-4)-1-0----------------------------------4-1-0----------0-----------0-1-4-5------
-----------------------------------------------------------------------------------------------------

ΤΡΑΓΟΥΔΙ

------3-7-7-7-8-7-----0---2-2-2-5-7-5-3-------0---
5-5-----------------0------------------------0-----
----------------------------------------------------

7-5-4-5-7-11-8-7-5-3-2-0---3-2----0-----7-5-4-5-7-11-8-7-5-3-2-0---------
---------------------------4------0-----------------------------------4-1-0-
-----------------------------------------------------------------------------



www.youtube.com/watch?v=8QLZ7S-TsxU


Τίτλος: Απ: Παρτιτούρες για Μπαγλαμά Τζουρά 3χορδο μπουζούκι...
Αποστολή από: ΘΟΔΩΡΗΣ στις Νοέμβριος 21, 2009, 03:49:10 μμ
Εχει κανείς το 'ο Αντώνης ο βαρκάρης ο Σερέτης' ???


Τίτλος: Και οι γκόμενες φορέσανε τραγιάσκες (Μάρκος Βαμβακάρης)
Αποστολή από: χαρης στις Νοέμβριος 21, 2009, 04:31:09 μμ
μαγκες τις ταμπλατουρες να τις βαζουμε σωστες και οχι οπως θελει ο καθενας.

παρτε τωρα τις ΤΡΑΓΙΑΣΚΕΣ ΤΟΥ ΜΑΡΚΟΥ.

11 12 14 12 11 11 8 8 7 8 8  8  8   8 7 8  11 14 12 11 8 7   7  ΕΠΙ 3
                                   10 10 10                                 8

                                   12 12 12                                 12



4 5  7 8 11 12 12 11 11  8 8 7 8  8 8  7 5  4 5 8 7 5 4 (0) 4
                                                                              5
                                            10 10                          7
                                             12 12


4 5 7 7 6 7 8 7 6 7  8 7 4 (((0)))
ΚΑΙ ΟΙ ΓΚΟΜΕΝΕΣ ΦΟΡΕΣΑΝΕ ΤΡΑΓΙΑΣΚΕΣ
7 8 11 11 8 7 11 8 7 6 7 5 4 (((0)))
ΚΑΙ ΣΤΟΥΣ ΔΡΟΜΟΥΣ ΤΡΙΓΥΡΝΟΥΝ ΚΑΙ ΚΑΝΟΥΝ ΤΣΑΡΚΕΣ
4 5 7 7 6 7 8 7 6 7 8 7 7 4  (((0)))
ΒΛΕΠΕΙΣ ΓΚΟΜΕΝΑ ΤΡΑΓΙΑΣΚΑ ΝΑ ΦΟΡΑΕΙ
6 7 8 11 11 8 7 11 8 7 6 7 5 4 4  (((0)))
                                         5                                    
                                         7
                                  


www.youtube.com/watch?v=iAiuKK_q4C0


Τίτλος: Χθες το βράδυ στο σκοτάδι (Μάρκος Βαμβακάρης, "Φράγκος")
Αποστολή από: kostas sinaplidis στις Νοέμβριος 22, 2009, 04:38:13 μμ
Oraia pragmata.... euxaristo ton filo Pempeth gia ta tragoudakia tou!

Bazo to "xthes to vradi stos skotadi" tou agapimenou Markou...

Eisagogi:
0-12-10-8--7-12-10-8--7-5-3-5--7-0--7-0-7      
0-----------0----------0---------0-0-------       } x2
0-----------0----------0---------0-0-------      

0-8-7-5--3-8-7-5--3-2-0---0-0-2-3-5-7--
0--------0---------0-----4---0-----------
0--------0---------0---------0-----------

0-8-7-5--3-8-7-5--3-2-0---0-0----0---0
0--------0---------0-----4---0--0---0--
0--------0---------0---------0---------

Logia:
0-8-7-5--3-8-7-5--3-2-0---0-0-2-3-5-7--
0--------0---------0-----4---0-----------
0--------0---------0---------0-----------

0-8-7-5--3-8-7-5--3-2-0---0-0----0---0
0--------0---------0-----4---0--0---0--
0--------0---------0---------0--------- kai meta alles 3 fores eisagogi-logia



www.youtube.com/watch?v=O01l6wcczbg


Τίτλος: Απ: Παρτιτούρες για Μπαγλαμά Τζουρά 3χορδο μπουζούκι...
Αποστολή από: thodoris στις Νοέμβριος 22, 2009, 05:14:00 μμ
   εχουμε κ λεμε.... "η υπογα"

    Εισαγωγη
(3)    0    2    3    4    4    3 3 3    2    0    3        3        3
3 2   3    4    7 7    3    4    2    3    4 3    0    2    3        3        3
4    3    4    3    3 4    3    4    3    2 3    2    3    4        3        2
(3 3)    0    2    3    3 4    4    2    3    3 0    2    (3)    0        0        0
10 10    8    10    7    8 10 8 7    4    3    3 2    0    2    3________10        10
10 10    8    10    7    8 10 8 7    4    3    3 2    0    2    3                3             3
4 4    3    4    3    3 4    3    4    3    2 3    2    0    4       3        2
(3 3)    0    2    3    3 4    4    2    3    3 0    2    (3)    0           0           0

Λογια

(3)    0    2    3    4    4    3 3 3    2    0    2    3          3          3
2    3    4    7    3    4    2    3    2    0    2    3          3            3
4    3    4    3    3 4    3    4    3    2 3    2    0    4          3         2
(3 3)    0    2    3    3 4    4    2    3    3 0    2    (3)    0            0          0


σε ποια χορδή τα παίζεις;;


οσα δεν ειναι στην παρενθεση στην κατω ρε κ οσα βρισκονται μεσα σε παρενθεση στη λα


Τίτλος: Απ: Παρτιτούρες για Μπαγλαμά Τζουρά 3χορδο μπουζούκι...
Αποστολή από: apollon1 στις Νοέμβριος 24, 2009, 01:08:01 μμ
MIPOS EXEI KAPIOS TO TRAGOUDI (TSIGARAKI MOU STRIFTO)
EUXARISTO


Τίτλος: Απ: Παρτιτούρες για Μπαγλαμά Τζουρά 3χορδο μπουζούκι...
Αποστολή από: kostas sinaplidis στις Νοέμβριος 27, 2009, 12:04:09 μμ
Γειά σας μάγκες!

Θα ήθελα την βοήθεια σας για την αρχή δύο τραγουδιών του Μ. Βαμβακάρη. Πρόκειται για το ¨Ολοι ρεμπέτες του ντουνιά¨και το ¨Χαιδάρι¨!! Σας ευχαριστώ!

Με την σειρά μου, ετοιμάζω το ¨Εφουμερναμ’ένα βράδυ¨!!


Τίτλος: Απ: Παρτιτούρες για Μπαγλαμά Τζουρά 3χορδο μπουζούκι...
Αποστολή από: ΘΟΔΩΡΗΣ στις Νοέμβριος 28, 2009, 04:10:36 μμ
Το ''τσιγαράκι μου στριφτό'' των Χαίνηδων είναι οντως τραγουδάρα...είναι εδώ,το λέει ο Μάλαμας στον δίσκο τους..αν μπορεί κάποιος ασ το βγάλει...από Μάλαμα έχει βγάλει κανείς τίποτα άλλο?

http://www.youtube.com/watch?v=6GdipKwR6_Q


Τίτλος: Απ: Παρτιτούρες για Μπαγλαμά Τζουρά 3χορδο μπουζούκι...
Αποστολή από: kosgia alaniaris στις Νοέμβριος 28, 2009, 08:59:49 μμ
ΜΠΡΑΒΟ ΡΕ ΜΑΓΚΕΣ ΑΥΤΗ ΕΙΝΑΙ ΔΟΥΛΕΙΑ! ΠΑΙΖΩ 8ΧΟΡΔΟ ΚΑΙ ΠΡΟΧΘΕΣ ΑΠΟΚΤΗΣΑ ΚΑΙ ΤΟ ΤΖΟΥΡΑΔΑΚΙ ΜΟΥ! ΑΛΛΗ ΦΑΣΗ! ΠΟΛΥ ΜΑΓΚΙΤΙΚΟ ΟΡΓΑΝΑΚΙ! ΚΑΙ ΒΕΒΑΙΑ ΜΟΛΙΣ ΒΡΗΚΑ ΤΗ ΣΕΛΙΔΑ ΣΑΣ ΠΗΡΑ ΠΕΡΙΣΣΟΤΕΡΟ ΘΑΡΡΟΣ ΓΙΑ ΜΙΑ ΝΕΑ ΑΡΧΗ ΜΕ ΤΟ ΟΡΓΑΝΟ ΑΥΤΟ! ΣΥΝΕΧΙΣΤΕ ΝΑ ΣΤΕΛΝΕΤΕ ΤΡΑΓΟΥΔΙΑ! ΜΗΠΩΣ ΞΕΡΕΙ ΚΑΠΟΙΟΣ ΤΟ 'ΜΑΥΡΑ ΜΑΤΙΑ ΜΑΥΡΑ ΦΡΥΔΙΑ" ΤΟΥ ΜΕΓΑ ΜΑΡΚΟΥ? ΑΝ ΝΑΙ ΝΑ ΤΟ ΣΤΕΙΛΕΙ ΝΑ ΤΟΥ ΕΙΝΑΙ ΕΥΚΟΛΟ! ΕΥΧΑΡΙΣΤΩ


Τίτλος: Μαύρα μάτια μαύρα φρύδια (Μάρκος Βαμβακάρης & Κώστας Ρούκουνας)
Αποστολή από: ΡΕΜΠΕΤΗΣ στις Νοέμβριος 29, 2009, 08:24:36 μμ
"ΜΑΥΡΑ ΜΑΤΙΑ  ΜΑΥΡΑ ΦΡΥΔΙΑ"  - (Μ. ΒΑΜΒΑΚΑΡΗΣ)

(Οι κόκκινες παίζονται γρήγορα)

7--7--12--12--7-8-7-5-------------5--------------8-7-6---6-7-
-----------------------8-8-8-8-8-7---8-8-7-7-5-5-------8-----
---------------------------------------------------------------


7--7--12--12--7-8-7-5-------------5------------------0--
-----------------------8-8-8-8-8-7---8-8-7-7-5-5--0--0--
-------------------------------------------------------3--

Στίχοι
0------7--7--12--10--8--7--5------------------5-7--------5-7--    }
0--5-8-------------------------8--7--7--8-7-8------8-7-8------    }
3--------------------------------------------------------------     }
                                                                                             }
                                                                                             }    Χ2
----7--7--12--10--8--7--5------------5------------                     }
5-8-------------------------8--7--7----8-7-8-5----                     }
---------------------------------------------------                      }



www.youtube.com/watch?v=K37zwunBFhk


Τίτλος: Όλοι οι ρεμπέτες του ντουνιά [1] (Μάρκος Βαμβακάρης, "Φράγκος")
Αποστολή από: ΡΕΜΠΕΤΗΣ στις Νοέμβριος 29, 2009, 10:03:21 μμ
"ΟΛΟΙ ΟΙ ΡΕΜΠΕΤΕΣ ΤΟΥ ΝΤΟΥΝΙΑ"   (Μ. ΒΑΜΒΑΚΑΡΗΣ)

(οι κόκκινες παίζονται γρήγορα, και οι υπογραμμισμένες τριάδες είναι τρίηχα)

--4--4--5-4-3-4-6--7--6--7----4--4--5-4-3-4-6-6-6-6-7----
5----------------------------5------------------------------
-------------------------------------------------------------

--4--4--5-4-3-4-6--7--6--7--7-6-9-7-5-4-3-4-------4----
5---------------------------------------------5--0--5----
----------------------------------------------------7----

   { 5-5-5-----5--------------5-7-8-7--5-7-5---5-------------------
Α { --------7-----8-7-5--7-8-----------------8--8-7-8-7-8----8----
   { ----------------------------------------------------------------


5-5-5-----5--------------5-7-8-7--5-7-5---5---------------0--
--------7-----8-7-5--7-8-----------------8--8-7-8-7-5--0--0--
------------------------------------------------------------3--


Στίχοι
---------7--5--------------------7-8-7-5---5-------4
5----8---------8--7--8-7-5---------------8---8-7-8--
-----------------------------------------------------

5----5--7--8--12--11-12-11-8-7------7-5-------5-7-4-5-7
------------------------------------------8-7-8-----------
----------------------------------------------------------

8----5--7--8--12--11-12-11-8-7------7-5---5-------5-7--
------------------------------------------8---8-7-8------
----------------------------------------------------------

--------7--5----------------7-8-7-5------------5-7-4-5-7
7----8--------8--7--8-7-5-----------8-7-5-7-8-----------
----------------------------------------------------------

8----5--7--8--12--11-12-11-8-7------7-5--5-------5-7--
------------------------------------------8--8-7-8------
---------------------------------------------------------

--------7--5----------------7-8-7-5------------0
7----8--------8--7--8-7-5-----------8-7-5--0--0
------------------------------------------------3      Και συνεχίζουμε από το σημείο Α



www.youtube.com/watch?v=-K5D_lVMYDE


Τίτλος: Απ: Παρτιτούρες για Μπαγλαμά Τζουρά 3χορδο μπουζούκι...
Αποστολή από: *MadmaX* στις Νοέμβριος 30, 2009, 12:23:24 πμ
Φίλε ΡΕΜΠΕΤΗ, είσαι μεγάλο κεφάλαιο! Ένα μεγάλο "ΜΠΡΑΒΟ" για τον εξής λόγο: Όλοι οι υπόλοιποι εδώ μέσα, κάτι έχουμε να πάρουμε! κάτι δίνουμε κάτι παίρνουμε! Εσύ, αδερφέ, το κάνεις, μόνο, για να δώσεις!


Τίτλος: Απ: Παρτιτούρες για Μπαγλαμά Τζουρά 3χορδο μπουζούκι...
Αποστολή από: kosgia alaniaris στις Νοέμβριος 30, 2009, 04:50:40 μμ
 :D :D :D :D :D :D :D :D :D :D :D :D :D :D :D

ΣΕ ΕΥΧΑΡΙΣΤΩ ΠΟΛΥ ΡΕΜΠΕΤΗ! ΕΙΣΑΙ ΜΕΓΑΛΟΣ ΚΑΙ ΓΟΥΣΤΑΡΕΙΣ ΑΥΤΟ ΠΟΥ ΚΑΝΕΙΣ!! ΛΙΓΟΥΣ ΤΕΤΟΙΟΥΣ ΕΧΩ ΓΝΩΡΙΣΕΙ! ΕΔΩ ΠΡΟΣΠΑΘΩ ΝΑ ΠΕΙΣΩ ΚΑΙ ΤΟΝ ΕΑΥΤΟ ΜΟΥ!!! ΦΑΝΤΑΣΟΥ!!!! ΕΙΣΑΙ ΟΜΩΣ ΔΥΝΑΤΟ ΚΙΝΗΤΡΟ!!! ΜΠΡΑΒΟ :-X :-X :-X :-X :-X :-X :-X :-X


Τίτλος: Απ: Παρτιτούρες για Μπαγλαμά Τζουρά 3χορδο μπουζούκι...
Αποστολή από: χαρης στις Νοέμβριος 30, 2009, 06:09:49 μμ
φιλε ρεμπετης .τις ταμπλατουρες τις βγαζεις απτο μυαλο σου η μηπως εχεις κανα βιβλιο με παρτιτουρες ;
στο τραγουδι μαυρα ματια εχει καποια λαθη.

παντως ειναι καλο που βαζεις τις ταμπλατουρες και διευκολυνεται ο κοσμος.


Τίτλος: Απ: Παρτιτούρες για Μπαγλαμά Τζουρά 3χορδο μπουζούκι...
Αποστολή από: ΡΕΜΠΕΤΗΣ στις Νοέμβριος 30, 2009, 07:08:43 μμ
Παιδιά ευχαριστω για τα λόγια σας, ότι κάνω το κάνω γιατί αγαπάω τα συγκεκριμένα τραγούδια, όπως κι εσείς άλλωστε.
Φίλε Χάρη τα περισσότερα τραγούδια τα έχω μάθει από παρτιτούρες
Συγκεκριμένα το μαύρα μάτια είναι από παρτιτούρα. Αν όμως βλέπεις κάποιο λάθος (και οποιοσδήποτε άλλος εννοείται), καλό είναι (χωρίς παρεξήγηση), να το επισημαίνουμε για να μην το μαθαίνουν λάθος και οι υπόλοιποι.
Πάντως απ΄ οτι βλέπω πάμε πολύ καλά.


Τίτλος: Απ: Παρτιτούρες για Μπαγλαμά Τζουρά 3χορδο μπουζούκι...
Αποστολή από: apollon1 στις Νοέμβριος 30, 2009, 09:33:19 μμ
GIASAS
paidia kanetai kali doulia kai brawo sta paidia pou afierounoun to xronotous kai mas woithane
mia erotisi mipos ginete na waloume kai liges partitoures me tablatoures
an auto eine epitrepomeno
giasas kai ta leme


Τίτλος: Όταν συμβεί στα πέριξ (Β. Τσιτσάνης - Στρ. Παγιουμτζής & Στ. Κερομύτης)
Αποστολή από: jojo στις Νοέμβριος 30, 2009, 10:56:12 μμ
kalhspera ki ena megalo megalo eyxaristw se oloys esas poy paleyete kai anevazete tragoydia olon ayto ton kairo kai mas dinete toso kalo yliko. ayto to forum htan aformh na ksanapiasw to mpoyzoyki poy to eixa apo dhmotiko akoma, sarakofagomeno kai skevromeno to kahmeno, toy evala 6 anti gia 8 xordes kai akoygetai super (?) (parhgoriemai mexri na parw kanena tzoyra ths prokophs).
h8ela apo kairo na dokimasw na perasw kapoio tragoydi se tab, vrhka xrono kai dia8esh shmera kai idoy h prwth apopeira kai elpizw na mporesw na paw kai gia alles.
einai to OTAN SYMVEI STA PERIX. phre arketh wra alla toy evala kai stixoys akrivws panw stis notes kai twra einai senio kai peripoihmeno


OTAN SYMVEI STA PERIX by TSITSANIS


eisagwgh
--7--7--9--11--12-11-12-14-11-12-9-7-11-12-9-11-7-9-5-7-4-3-4-5-7-9-6-9-7
-------------------------------------------------------------------------------
-------------------------------------------------------------------------------


--7--7--9--11--12-11-12-14-11-12-9-7-11-12-9-11-7-9-5-7-4-12-11-9-7-5-4-2-0-------
----------------------------------------------------------------------------------0-2-4
----------------------------------------------------------------------------------------


----gia-ti-rw-ta-te-na-sas-pw------------------------------------
-0-----0--2--4--2--0------0-----0--0-2-4-2-4-2-2-0--2-0--------
----0----------------4-2-4--------0-----------------4-----0-2-4-
-----------------------------------------------------------------


---afoy-sas-ei-nai-pia-gnwsto------------------------------------
0-----0--2--4--2--0-------0-----0--0-2-4-2-4-2-2-0--2-0-2---2-
----0----------------4-2-4--------0-----------------4-------4---
-----------------------------------------------------------------


----o-tan-sym-vei-sta-pe-rix---fw-ties-na-kai-ne
-0--4--5--7---9---9---9---9----9--11--9--7--7----
----5--7--9--10--10--10--10---10-12-10--9--9----
---------------------------------------------------


------------pinoyn-oi-mages-ar-gi--le---
-7-9-7-6-5---5--5--5--5--5--5--5--4---12-11-9-7-9-5-7-4-5-2-4-0-2---2--
9-10-9-8-7---7--7--7--7--4--2--4--5---------------------------------4----
---------------------------------------------------------------------------


----o-tan-sym-vei-sta-pe-rix---fw-ties-na-kai-ne
-0--4--5--7---9---9---9---9----9--11--9--7--7----
----5--7--9--10--10--10--10---10-12-10--9--9----
---------------------------------------------------


------------pinoyn-oi-mages-ar-gi--le-------------------------------------
-7-9-7-6-5---5--5--5--5--5--5--5--4---12-11-9-7-9-5-7-4-5-2-4-0-------
9-10-9-8-7---7--7--7--7--4--2--4--5-------------------------------------
---------------------------------------------------------------------------



www.youtube.com/watch?v=pY2giBeycJk


Τίτλος: Στο Φάληρο που πλένεσαι (Μάρκος Βαμβακάρης, "Φράγκος" & Έλλη Πετρίδου)
Αποστολή από: *MadmaX* στις Δεκέμβριος 02, 2009, 12:00:50 πμ
ΣΤΟ ΦΑΛΗΡΟ ΠΟΥ ΠΛΕΝΕΣΑΙ (Μ. ΒΑΜΒΑΚΑΡΗΣ)

ΕΙΣΑΓΩΓΗ
--5-5-4-5- 7-8-9-10-8-8-7-5-4-3-2-1-2-3-5-2-----
-----------------------------------------------3-3
--------------------------------------------------

-5-5-4-5-7-8-9-10-8-8-7-5-4-3-2-5-3-2----------
-----------------------------------------5-3—3-3
-------------------------------------------------

ΤΡΑΓΟΥΔΙ
2-1-2-3-2-5-5-2-3-2-----3-2-----2------2-1-2-3-2-5-5-2-3-2-----2--------
----------------------5--------3-------------------------------5-----3—3-3
----------------------------------------------------------------------------



www.youtube.com/watch?v=Qm-YUn8_HpQ


Τίτλος: Απ: Παρτιτούρες για Μπαγλαμά Τζουρά 3χορδο μπουζούκι...
Αποστολή από: kosgia alaniaris στις Δεκέμβριος 03, 2009, 08:15:48 μμ
ΦΙΛΕ ΡΕΜΠΕΤΗ ΜΗΠΩΣ ΞΕΡΕΙΣ ΤΟ ΤΡΑΓΟΥΔΑΚΙ ΤΟΥ ΛΕΜΠΕΣΗ ΤΑ ΜΑΛΛΙΑ ΣΟΥ ΤΑ ΠΛΕΜΜΕΝΑ!!! ΤΙ ΤΡΑΓΟΥΔΙ ΘΕ ΜΟΥ


Τίτλος: Απ: Παρτιτούρες για Μπαγλαμά Τζουρά 3χορδο μπουζούκι...
Αποστολή από: ΡΕΜΠΕΤΗΣ στις Δεκέμβριος 03, 2009, 09:08:10 μμ
Δυστυχως δεν το ξερω, θα το παλεψω ομως.
Αυτές τις μέρες θα σας δώσω το "Χρόνια στον Περαία" του Μάρκου,
και το "Θα ζήσω ελεύθερο πουλί" του Χρηστάκη


Τίτλος: Απ: Παρτιτούρες για Μπαγλαμά Τζουρά 3χορδο μπουζούκι...
Αποστολή από: kosgia alaniaris στις Δεκέμβριος 04, 2009, 04:43:52 μμ
EISAI PRVTOW FILE MOY! UA PIV MIA RAKH STHN YGEIA SOY :P :P :P :P :P :P :P


Τίτλος: Τα μαλλιά σου τα πλεμμένα (Γιάννης Λεμπέσης - Παραδοσιακό Πόλης)
Αποστολή από: ΡΕΜΠΕΤΗΣ στις Δεκέμβριος 04, 2009, 10:29:53 μμ
«ΤΑ ΜΑΛΛΙΑ ΣΟΥ ΤΑ ΠΛΕΜΜΕΝΑ»

(Οι κόκκινες παίζονται γρήγορα)

0-7-5-7-5-7-5-7-5-7-5-3-1-0-0-0-1-3-5-7----0-7-5-7-5-7-5-7-5-7-5-3-1-0-0--0--0--    }
0---------------------------------------------0------------------------------0--0----    }   Χ2
0---------------------------------------------0--------------------------------------    }

Στίχοι
α-ντε ρί-ξε  τα    μαλ-λια----σου-- πί---σω            α-ντε να σε δω   να    σα----γα---πή-σω
0—7—5—5—3--—5--—7—5—3—1—0--—7----------0—7—5—5—3----5----7—3—1—0—0—0—0--
0-------------------------------------------------0-----------------------------------0--0---
0-------------------------------------------------0------------------------------------------


0-7-5-7-5-7-5-7-5-7-5-3-1-0-0-0-1-3-5-7----0-7-5-7-5-7-5-7-5-7-5-3-1-0-0--0—0--    
0---------------------------------------------0------------------------------0—0----    
0---------------------------------------------0--------------------------------------    


  α-ντε  τα  μαλ-λια--------------- σου  τα-- πλεμ---με--να
10—12—12—12—12-13-12-13—12—10—10—8—8—7—7----7----
--------------------------------------------------------------
--------------------------------------------------------------


  α-ντε   τα  μαλ-λιά        σου       τα      πλεμ—---με---να
10—12—12—12—12-------14------10------8------7—7—7—7—7----
-------------------------------------------------------------------
-------------------------------------------------------------------

Αντε  τα μαλλιά   σου       τα--- πλεμ---με----να
0—7—5—7—3------5------7—5—3—1—0------7—7—7----
0--------------------------------------------------------
0--------------------------------------------------------



       Τρελαναν     πολ—-λους----κιε---με-να
0—7—5—7—3------5------7—3—1—0—0—0-0----
0---------------------------------------0-0-----
0------------------------------------------------
    


www.youtube.com/watch?v=deAt6_qLwsc


Τίτλος: Απ: Παρτιτούρες για Μπαγλαμά Τζουρά 3χορδο μπουζούκι...
Αποστολή από: kosgia alaniaris στις Δεκέμβριος 06, 2009, 10:20:13 πμ
ΕΝΑ ΕΥΧΑΡΙΣΤΩ ΕΙΝΑΙ ΛΙΓΟ! ΧΙΛΙΑ ΕΥΧΑΡΙΣΤΩ ΚΑΙ ΠΑΛΙ ΔΕ ΦΤΑΝΟΥΝ! ΝΑ ΣΑΙ ΚΑΛΑ ΡΕΜΠΕΤΗ! ΟΛΑ ΤΑ ΤΡΑΓΟΥΔΙΑ ΠΟΥ ΘΑ ΠΑΙΞΩ ΣΗΜΕΡΑ ΑΦΙΕΡΩΜΕΝΑ ΣΕ ΣΕΝΑ!


Τίτλος: Απ: Παρτιτούρες για Μπαγλαμά Τζουρά 3χορδο μπουζούκι...
Αποστολή από: philipas στις Δεκέμβριος 06, 2009, 12:51:29 μμ
ΘΑ ΣΥΜΦΩΝΗΣΩ ΚΑΙ ΓΩ ΜΕ ΤΟΝ ΠΡΟΗΓΟΥΜΕΝΟ ΕΙΣΑΙ ΦΟΒΕΡΟΣ!!!

ΚΑΙ ΚΑΤΙ ΕΥΚΟΛΟ ΓΙΑ ΣΕΝΑ
!!!


ΦΙΝΑ ΤΑ ΧΕΙΣ ΚΑΤΑΦΕΡΕΙ
 ;)

(ΜΑΡΚΟΥ)

ΑΝ ΚΑΙ ΟΠΟΤΕ ΘΕΛΗΣΕΙΣ!!!
ΚΑΙ ΕΥΧΑΡΙΣΤΟΥΜΕ ΠΟΛΥ ΓΙΑ ΟΛΑ!!!


Τίτλος: Απ: Παρτιτούρες για Μπαγλαμά Τζουρά 3χορδο μπουζούκι...
Αποστολή από: mouxtaris dimitris στις Δεκέμβριος 06, 2009, 04:40:34 μμ
mpravo se olous pedia poli kali doulia


Τίτλος: Φίνα τα 'χεις καταφέρει (Μάρκος Βαμβακάρης & Απόστολος Χατζηχρήστος)
Αποστολή από: ΡΕΜΠΕΤΗΣ στις Δεκέμβριος 06, 2009, 09:19:07 μμ
«ΦΙΝΑ ΤΑ ΄ΧΕΙΣ ΚΑΤΑΦΕΡΕΙ»  - (Μ. ΒΑΜΒΑΚΑΡΗΣ)

7-5-7-3-5-2-3--2--------------------------------------------2---
--------------5--3-5-3-2-0--5--3-5-2-3-0-3---0--0-2-3--3-5-----
--------------------------------------------5---------------------


7-5-7-3-5-2-3--2---------------------------------7-7-7-7-7-7-7-----
--------------5--3-5-3-2-0--5--3-5-2-3-0-3---0---------------------
--------------------------------------------5---------------------2--


Στίχοι
      Φί----να      ταχεις  κα-τα-φέ—ρει                   στα      νε----ρά σου μεχεις φέ-----ρει
      -------2------------------------2--2-2-2-2-2----------2------------------------------------
Α    0-------------3--5--3--2--0--------------------0-------------3--5--3--2--0--0-0-0--0-0-0--
      --------------------------------------------------------------------------------------------


7----7--7--14--7--14----10--10-12-10--9--7--14-14-14--14-14-14-12-10-9
---------------------------------------------------------------------------
---------------------------------------------------------------------------                                                                                                                                                        
                                                                                                                                                    
7----7--7--14--7--14----10--10-12-10--9--7--7-7-7-7-7-7-7--5-4
------------------------------------------------------------------
------------------------------------------------------------------

Και-- στο--- κέ----φι- σου--- με--- φέρ-νεις    νου-- και--- σκέ---ψη- μου-  τα--  παίρ----νεις
5--4--5--7--5--3--2---2-----------------------5--4--5--7--5--3--2---2------------------------------ }
---------------------5----5--3--2--3----3--------------------------5----5--3--2--0--0-0-0--0-0-0----}  X2
------------------------------------------------------------------------------------------------------}


5--5-4-5--7--5-7-3-5-2-3-0--2----2-----------------------------
---------------------------------5--3-5-3-2-3--3-3-3--3-3-3----
-----------------------------------------------------------------

5--5-4-5--7--5-7-3-5-2-3-0--2----2------------7-7-7-7-7-7-7-----
---------------------------------5--3-5-3-2-0---------------------
----------------------------------------------------------------2--             συνέχεια από το σημείο Α



www.youtube.com/watch?v=4TtXMyVapaY


Τίτλος: Απ: Παρτιτούρες για Μπαγλαμά Τζουρά 3χορδο μπουζούκι...
Αποστολή από: philipas στις Δεκέμβριος 06, 2009, 11:44:32 μμ
Εισαι Απιστευτος!!!
Ευχαριστω!!!


Τίτλος: Τότε που τα 'χα τα λεφτά (Μάρκος Βαμβακάρης, "Φράγκος")
Αποστολή από: χαρης στις Δεκέμβριος 07, 2009, 04:29:43 μμ
TOTE ΠΟΥ ΤΑΧΑ ΤΑ ΛΕΦΤΑ. μαρκος βαμβακαρης
σε παρενθεση μεσα ειναι 2 χορδη.
στο κοκκινο γλιστραει
Ο  5   9  11 12 12  14 12  11  10  9  8 9  8 9 5     8 9   12 10  9 8 9  11   14  12

Ο  5   9  11 12 12  14 12  11  10  9  8 9  8 9  5 4 5 5 4  2 1 4  2(2) [2(2)((5))]εδω και οι τρεις μαζι στην αγκυλη
          
                                                                                                                                            


(2) 2  1  4  2  5  4 7  5  8 9  8  5  4   2 4  5  2
γιατι καρδια μου δεν πονας γιατι δεν συλλογιεσαι.

 9  10 8 9  14   9 10 8  9 8  5  4  5 4 2  2.


0  5   4  7   5  9  8   10   9   12    11  10   9   11   14   12.
οτι για σενα χανουμαι γιατι με απαρνιεσαι

14  15  16  17 14  17   15   12  14 11 12  9 10  9  8  9   12  10  9


 9  10  9  8  5 4 2  1 2 4  5  8 9 5 4 2
οτι για σενα χανουμε γιατι με απαρνιεσαι



www.youtube.com/watch?v=IwnCtz6aTKg


Τίτλος: Το μπαγλαμαδάκι (Στράτος Παγιουμτζής "Τεμπέλης" - Στέλιος Κερομύτης "Μπούμπης")
Αποστολή από: xrhman στις Δεκέμβριος 08, 2009, 07:17:25 μμ
Το δικό μου λέγετε ΠΑΙΖΕΙ ΤΟ ΜΠΑΓΛΑΜΑΔΑΚΙ του Παγιουμτζη και είναι πολύ εύκολο. Στα youtube και τα περιξ όμως θα το βρείτε ως "το μπαγλαμαδακι" ή "παίζει το μπαγλαμαδακι".
Το έβγαλα μάναχος μου οπότε κάθε διόρθωση που στέκει ακουστικώς,  δεκτήν.
όλο είναι π-ν-π-ν δηλαδή ενα παίξιμο με την πένα προς τα πάνω και ένα προς τα κάτω και ίδιο ρυθμό. Το λοιπόν...

            ΠΑΙΖΕΙ ΤΟ ΜΠΑΓΛΑΜΑΔΑΚΙ

0-0-0-2-3-3-3-5-7-7-7-8-7-8-7-8-7-5-3-2
0-----------------------------------------
0-----------------------------------------

0-0-0-2-3-3-3-5-7-7-7-8-7-8-7-8-7-5-3-2-3-5-7-5-3-2-0-0-0-3-5-7-5-3-2-0-0-0-0-0
0-----------------------------------------
0-----------------------------------------

-----3-2-0-0-0-2-----3-2-0-0-0-0-0- \
-3-5-------------3-5----------------  |  χ2
------------------------------------- /


         παί-ζει το     μπα-α-γλα---α--μα-δάκι
-3--3--5--7--3--3--5--7--3--3--5--7--3--3--3--3--3  \
----------------------------------------------------   |  χ2
----------------------------------------------------   /

(τώρα είναι που συνήθως μπαίνει και η δεύτερη φωνή) επίσης το (2) πιο κάτω σημαίνει ότι το παίζει όποιος θέλει
έγω ας πούμε δεν το παίζω δεν μου "βγαίνει".

          παί-ζει-το----μπα---γλα-α---α--μα-δα-κι
--------3--2--0--0--0--(2)---------3--2--0--0--0--0--0--  
-3--5----------------------3--5--------------------------
----------------------------------------------------------    
         και-χο-ρευ-ω           ζε-ε----εΐ--μπε-κα-κι                          
--------3--2--0--0--0--(2)---------3--2--0--0--0--0--0--      
-3--5----------------------3--5--------------------------  
----------------------------------------------------------

Αν μπόρει κάνας μόρτις ας ξηγηθεί το "Κάτω στα λεμονάδικα" του Ρούκουνα Κώστα.



www.youtube.com/watch?v=5pGhTxwyGA8


Τίτλος: Εφουμέρναμε ένα βράδυ (Μάρκος Βαμβακάρης, "Φράγκος")
Αποστολή από: kostas sinaplidis στις Δεκέμβριος 08, 2009, 08:01:41 μμ
Opos sas eixa yposxethei... oriste mia kommatara tou Markou: Efoumernam'ena vradu!
(Exo amfivolies gia thn eisagogi)

Eisagogi:

5-5-5-5--5-5-5-8--7-5-4-----4-7-7--7-0
5--------5---------0----6--5---5----5--
5--------5---------0-------0---0----0--
                                                                  x2

5-5-5-5--5-5-5-8--7-4-5---0---0-0--0--
5--------5---------0----6--0-0-0------0
5--------5---------0-------0---0-------

Stixoi

0-0-11-8--7--4-7--6-7-4-1--0---7-7--7--
0----------0-------0--------0-0-0----0-0
0----------0-------0--------0---0----0--
                                                                   x2
0-0-11-8--7--4-7--6-7-4-1--0---0-0--0--
0----------0-------0--------0-0-0----0-0
0----------0-------0--------0---0----0--

0--0----0--1--4-1-0----0---0-0--0--    }
0----4--0-----0-----4--0-0-0------0    } x2 (dixos na exoume sthn porta...)        
0-------0-----0--------0---0--------    }



www.youtube.com/watch?v=cvX2fD2b14o


Τίτλος: Κάτω στα λεμονάδικα (Οι λαχανάδες) (Βαγγέλης Παπάζογλου, Στελλάκης Περπινιάδης)
Αποστολή από: ΡΕΜΠΕΤΗΣ στις Δεκέμβριος 08, 2009, 10:43:59 μμ
«ΚΑΤΩ ΣΤΑ ΛΕΜΟΝΑΔΙΚΑ»

19-17-19-15-17-14-15-12-14-10-12-8-10-7--7-6-7--10--8-10-8-7-8--12--10--10----
------------------------------------------------------------------------------------
------------------------------------------------------------------------------------


19-17-19-15-17-14-15-12-14-10-12-8-10-7--7-6-7--10--8-10-8-7-8--10--7---------6--
-----------------------------------------------------------------------------7--8------
---------------------------------------------------------------------------------------

Στίχοι
Κα----τω    στα     λε------------    κα--τω-------- στα λε-------
7--8--10----10----10-12-10-9-10--12--13--10--12--8--7-8-6-7----6--
---------------------------------------------------------------8------
----------------------------------------------------------------------

κα----τω    στα     λε-------------  μο--νά---------  δι-κα
7--8--10----10----10-12-10-9-10--12--13--10--12--8--7--10--12--14--
------------------------------------------------------------------------
------------------------------------------------------------------------

κα--τω  στα  λε------------   μο--να----------δι--κα------
15--13--12--10-12-10-9-10--12--13--10--12--8--7--8--10--12--
----------------------------------------------------------------
----------------------------------------------------------------

 Έ--γι---νε   φα------------  σα--ρί---------------α
15--13--12--10-12-10-9-10--12--13--10--12--8--7--10--12--14--
-----------------------------------------------------------------
-----------------------------------------------------------------


δυό λα--χα--νά------------  δες   πιά---------σα--νε------
15--13--12--10-12-10-9-10--12--13--10--12--8--7--8--10--12--
----------------------------------------------------------------
----------------------------------------------------------------

και  κα--ναν την-----------   κυ---ρί--------------α
15--13--12--10-12-10-9-10--12--13--10--12--8--7------
---------------------------------------------------------
---------------------------------------------------------        Από την αρχή



www.youtube.com/watch?v=iy8EwM_8C5c


Τίτλος: Απ: Παρτιτούρες για Μπαγλαμά Τζουρά 3χορδο μπουζούκι...
Αποστολή από: ΘΟΔΩΡΗΣ στις Δεκέμβριος 09, 2009, 12:09:45 πμ
Ρεμπέτη τι να πω για σένα ρε φίλε....το ξεκινήσαμε εμείς το εγχείρημα αλλά εσύ μας έχεις βοηθήσει τρομερά..μπράβο σου ρε φίλε κάνεις κόσμο χαρούμενο..μπορείς να βγάλεις και το 'ο Αντώνης ο βαρκάρης'.. ?


Τίτλος: Απ: Παρτιτούρες για Μπαγλαμά Τζουρά 3χορδο μπουζούκι...
Αποστολή από: philipas στις Δεκέμβριος 09, 2009, 11:23:21 πμ
An yparxei lathos sto efoumername ena vrady kai mporei na to diorthosei kapoios i na tou riksei mia matia kalo tha itan!
afou prospathoume na to mathoume sosta e?!!!

Bravo se olous Paidia !!!!

Keep Walking(Writing)!!!


Τίτλος: Απ: Παρτιτούρες για Μπαγλαμά Τζουρά 3χορδο μπουζούκι...
Αποστολή από: kostas sinaplidis στις Δεκέμβριος 09, 2009, 07:22:55 μμ
O rempetis dikaia to exei to onoma...


Τίτλος: Απ: Παρτιτούρες για Μπαγλαμά Τζουρά 3χορδο μπουζούκι...
Αποστολή από: χαρης στις Δεκέμβριος 09, 2009, 10:36:26 μμ
εχει κανεις το ταξιμ ζειμπεκικο του βαμβακαρη σε παρτιτουρα,υπαρχει τιποτα;


Τίτλος: Ο Αντώνης ο βαρκάρης (Σπ. Περιστέρης - Μ. Βαμβακάρης & Α. Χατζηχρήστος)
Αποστολή από: ΡΕΜΠΕΤΗΣ στις Δεκέμβριος 09, 2009, 11:02:29 μμ
«Ο ΑΝΤΩΝΗΣ Ο ΒΑΡΚΑΡΗΣ»

(Οι κόκκινες παίζονται γρήγορα, και οι υπογραμμισμένες παίζονται σαν τρίηχα)

--------------7-9-9-9-7--------------------------------
-----6-7-9-10----------10-10-10-9-7-7-7-5-3-5-3-2-0--
9-10---------------------------------------------------


--------------7-9-9-10-9-7--------10-9-10-9-8-9-
2-3-6-7-9-10--------------10-9-10---------------
--------------------------------------------------


      14---12-10---9-10-9-7------------7-9--9--7-7------------------------
Α     ----------------------10-9---9-10---10----9--10-7-10-9-6-9-7----7--
       ----------------------------------------------------------------9-----

Στίχοι
Ο  Αντώνης ο βαρ-κά-ρης ο  σε-ρέ---της     ε--πα--ψε     να      ζει---------   ρε--μπέ--------της
--------------------------------8----9-----9--10--14----13----14--13--14--12--10--12--10--9--
10--9--7---7--9--10--7--9--10-----------------------------------------------------------
----------9------------------------------------------------------------------------------

τραγου-δά----ει       κιό--λο  πί-----νει   ταυ-ρο-μά--χος πάει    να     γί----νει
9--10--12----14-----10--9--10--9--7-----------7----9------------------7--9--
-----------------------------------------9--10-----------10----9----10-------
------------------------------------------------------------------------------

τραγου-δά----ει       κιό--λο  πί ----νει   ταυ-ρο-μά--χος πάει    να      γί---νει
9--10--12----14-----10--9--10--9--7-----------7----9-------------------------9-8-9-
-----------------------------------------9--10-----------10----9----10-9-7----------
-------------------------------------------------------------------------------------

                                                                                    συνέχεια από το σημείο Α



www.youtube.com/watch?v=PeqF7Pvu4wM


Τίτλος: Απ: Παρτιτούρες για Μπαγλαμά Τζουρά 3χορδο μπουζούκι...
Αποστολή από: kostas sinaplidis στις Δεκέμβριος 10, 2009, 08:18:37 μμ
Mipos mporei kapoios na me voithisei gia "to Xaidari" tou Markou kai Steliou Vamvakari?
 yparxei mono se afti thn ektelesi:

http://www.youtube.com/watch?v=qA78aprvt1U

euxaristo!



Τίτλος: Απ: Παρτιτούρες για Μπαγλαμά Τζουρά 3χορδο μπουζούκι...
Αποστολή από: philipas στις Δεκέμβριος 11, 2009, 09:51:46 πμ
ΤΑ ΤΡΙΗΧΑ ΤΙ ΕΙΝΑΙ???

Ευχαριστω!!!


Τίτλος: Απ: Παρτιτούρες για Μπαγλαμά Τζουρά 3χορδο μπουζούκι...
Αποστολή από: χαρης στις Δεκέμβριος 11, 2009, 02:06:12 μμ
εινει τρεις νοτες τις οποιες ομως τις παιζεις γρηγορα.


Τίτλος: Απ: Παρτιτούρες για Μπαγλαμά Τζουρά 3χορδο μπουζούκι...
Αποστολή από: matzore στις Δεκέμβριος 11, 2009, 11:30:31 μμ
giasas paidia kainourgios se autin tin selida
bravo kales prospathies apo ola ta paidia
den ksero an gia proti fora pou sas grafo exo to dikeoma
na zitiso kati ala to kano kai oti gini
mipos mpori na wali kapios to tragoudi
(PENTE ELLINES STON ADI)kai me ligo taksimaki AN GINETE
evxaristo kai ta leme naste oloi kala
GIASAS


Τίτλος: Σατράπισσα (Αραμπάς περνά) (Β. Τσιτσάνης - Μ. Βαμβακάρης & Β. Τσιτσάνης)
Αποστολή από: *MadmaX* στις Δεκέμβριος 12, 2009, 12:03:58 πμ
ΑΡΑΜΠΑΣ ΠΕΡΝΑ (Η ΣΑΤΡΑΠΙΣΣΑ) – Β. ΤΣΙΤΣΑΝΗΣ

ΕΙΣΑΓΩΓΗ
-4-3-4—6-5-6---9-11-9-7
--------------------------  (δύο φορές)
--------------------------

-7-11-11-9-9-7-7-5-5-5-5-5-5-5
---------------------------------
---------------------------------

-2-1-2—5-4-5—7-6-7
--------------------- (δύο φορές)
---------------------

----------2-5-5-4-2-0-----0
-0-0-4------------------0---
----------------------------

ΤΡΑΓΟΥΔΙ
Α --ρα –μπάς---περ---νά--------α—ρα –μπάς----περ—να
4---5----7------9-----7--------4---5----7------9----7
-------------------------------------------------------
-------------------------------------------------------

Κι  η  σα-τρά-πι σσα----κι η σα-τρά---πι--σσα
--5—-7—9—9---9-------5---7---9---9---9
-------------------------------------------
-------------------------------------------

Που α--γα-πη-σα--α---εί—ναι—αι-----με------σα
-9-11--12-11-14-12---11—9--11---9-11-9—--7
------------------------------------------------
------------------------------------------------

Α- γκα--λιά—ζε—ται ---- α-- γκα--λιά—ζε—ται
5---7----9---9---9------5----7----9---9---9
--------------------------------------------
--------------------------------------------


Κι ου----τε ----νοιά—ζε—ται---αι---η---μπα—αα-----μπέ—----σα
--11----12-----14---12—11—-9---7----14---16—14-16-14—-12
----------------------------------------------------------------
----------------------------------------------------------------


-----------11—12------12-
12—14-------------12-----
---------------------------



www.youtube.com/watch?v=I07wfcLEIGg


Τίτλος: Απ: Παρτιτούρες για Μπαγλαμά Τζουρά 3χορδο μπουζούκι...
Αποστολή από: nikkortis στις Δεκέμβριος 12, 2009, 02:08:19 μμ
Μπραβο ρε παιδια... παρα πολυ ωραια ολα... παμε πολυ καλα!!!


Τίτλος: Απ: Παρτιτούρες για Μπαγλαμά Τζουρά 3χορδο μπουζούκι...
Αποστολή από: kosgia alaniaris στις Δεκέμβριος 13, 2009, 07:29:31 μμ
φίλε ρεμπέτη και λοιπή παρέα θα ήθελα να μου επιβεβαιώσεται αν οι συγχορδίες που αναφέρονται σε αυτή τη σελίδα είναι σωστές! ευχαριστώ

http://wiki.kithara.gr/%CE%A3%CF%85%CE%B3%CF%87%CE%BF%CF%81%CE%B4%CE%AF%CE%B5%CF%82_%CF%84%CE%BF%CF%85_%CE%BC%CF%80%CE%B1%CE%B3%CE%BB%CE%B1%CE%BC%CE%AC


Τίτλος: Απ: Παρτιτούρες για Μπαγλαμά Τζουρά 3χορδο μπουζούκι...
Αποστολή από: ΡΕΜΠΕΤΗΣ στις Δεκέμβριος 13, 2009, 08:00:27 μμ
Οι συγχορδίες είναι ολόσωστες, αν και κανα δυο από αυτές είναι λίγο δύσκολο να παιχτούν σε μπουζούκι λόγω της μεγάλης απόστασης μεταξύ των τάστων

Παιδιά ετοιμάζω το "Πέντε Έλληνες στον άδη"
θα μου πάρει λίγο χρόνο όμως


Τίτλος: Οι μάγκες δεν υπάρχουν πια (Μανώλης Ρασούλης - Νίκος Παπάζογλου)
Αποστολή από: kosgia alaniaris στις Δεκέμβριος 14, 2009, 06:57:38 μμ
ΟΙ ΜΑΓΚΕΣ ΔΕΝ ΥΠΑΡΧΟΥΝ ΠΙΑ

ΡΑΣΟΥΛΗΣ

Ολά στην πρώτη χορδή (ΡΕ)

εισαγωγή
-14-10-12-8-7-8-7-5-   x3

λόγια
 οι    μα  -  γκες   δεν υ  - πάρ  - χουν    πια
-5-   7-       7-      7-   7-  14-     10-     12-(14-12-10-12)=ανταπόκριση
τους   πα  -  τη  -  σε   το   τρε  -      νο
-12-   14-    15-    14-  12- 14-12-10-9-   (10-9-8-7)=ανταπόκριση

ελπίζω να είναι σωστό! σίγουρα είναι πολύ απλή εκτέλεση! αν μπορεί κάποιος να την εμπλουτίσει θα εκανε πολύ καλά!



www.youtube.com/watch?v=3lc0_NsTA4k


Τίτλος: Απ: Παρτιτούρες για Μπαγλαμά Τζουρά 3χορδο μπουζούκι...
Αποστολή από: philipas στις Δεκέμβριος 15, 2009, 08:52:47 πμ
Καλημέρα να ρωτήσω? η "ανταπόκριση" τι είναι??? ;D


Τίτλος: Απ: Παρτιτούρες για Μπαγλαμά Τζουρά 3χορδο μπουζούκι...
Αποστολή από: kostas sinaplidis στις Δεκέμβριος 15, 2009, 11:22:04 πμ
Kalimera! H antapokrisi einai to "gemisma", i mousiki anamesa stous stixous, stis strofes tou tragoudiou!


Τίτλος: Αργιλέ μου γιατί σβήνεις (Στέλιος Χρυσίνης - Γεωργία Μηττάκη)
Αποστολή από: staurakas στις Δεκέμβριος 16, 2009, 06:24:26 μμ
Mpravo se olous sas.
Eiha kairo na anevaso kati.
Oriste !
Midi format diathesimo.


Argile mou giati svineis


12-13-10-13-12-(12)-12-(12)-12-13-10-13-12-(12)-12-(12)-12-(12)-)
                                                                                                              )
12-13-10-13-12-(8 )-(10)-(12)-(8 )-(6)-(6)-(5)-(3)-(5)-(0)-(5)-(0)-(5)- )        2x


      argile  mou
(5)-7-8-7-5-5-(8 )-5-7-(8 )-5-(6)-(5)-(5)-


      ki’olo
(5)-7-8-7-5-5-(8 )-5-7-(8 )-(6)-(8 )-5-(6)-(5)-(5)


(5)-7-10-8-10-7-(10)-(10)-(10)-(8 )-(10)-7-(8 )-(8 )-(10)-(6)-(5)-(5)-(0)-  2x


     mipos
(5)-7-8-10-7-8-10-8-7-5-7-5-7-(8 )-(8 )


(5)-(8 )-5-7(8 )-5-(8  )-(6)-(8 )-(6)-(8 )-(5)-(5)



(5)-7-8-10-7-8-10-8-7-5-7-5-7-(8 )-(8 )


(5)-(8 )-5-7(8 )-5-(8 )-(6)-(8 )-(6)-(8 )-(5)



www.youtube.com/watch?v=5h2mzs4PsH8


Τίτλος: Απ: Παρτιτούρες για Μπαγλαμά Τζουρά 3χορδο μπουζούκι...
Αποστολή από: alterna στις Δεκέμβριος 16, 2009, 07:41:56 μμ
Μάγκες το Πέντε 'Ελληνες στον Άδη είναι απο τα καλύτερα του Παπαιωάννου..
Αν το έχει κάποιος θα είμαι ευγνώμων..


Τίτλος: Πέντε Έλληνες στον Άδη [1] (Γιάννης Παπαϊωάννου - Οδυσσέας Μοσχονάς)
Αποστολή από: ΡΕΜΠΕΤΗΣ στις Δεκέμβριος 18, 2009, 12:34:08 πμ
Με πρόλαβε ο Σταύρακας, αλλά μιας και ασχολήθηκα πάρτε και το δικό μου

«ΠΕΝΤΕ ΕΛΛΗΝΕΣ ΣΤΟΝ ΑΔΗ»

5--7----7------4-5-7--------4-5-7-9-7-5--3-5-3-2-0-3-2-2-2-2--
5--7----7--5-7----------5-7-------------------------------------
8-10---10-------------------------------------------------------

10----9--8--7--5--10-9-10-9-10-12-7-7-7----14-15-14-12-12-10-12-10-8-7
---------------------------------------------------------------------------
---------------------------------------------------------------------------

5--7----7------4-5-7--------4-5-7-9-7-5--3-5-3-2-0-3-2-2-2-2--
---7----7--5-7----------5-7-------------------------------------
--10---10--------------------------------------------------------

10----9--8--7--5--10-9-10-9-10-12-7-7-7----5-7-5-4--4-5-7----4-5-7-8-7-5
------------------------------------------------------7------5-7------------
----------------------------------------------------------------------------

Στίχοι
     Πέ-ντε  Έλ--λη---νες------  στον ά-------δη
7----5--7--7----7----7-5-7-9-7--5--4-5-3-2-2-----4-5-7-8-7-5
-----------------------------------------------5-7-------------
---------------------------------------------------------------

       Α-ντα-μώ-σαν     έ-----------να               βρά-------δυ
7----5--7--7----7----12-10-12-14-12-14-12-10-12-10-8-7-7----4-5-7-8-7-5
------------------------------------------------------------5-7-------------
----------------------------------------------------------------------------

7--5-7-7-7-7-7-7--10-8-7-7--8-10-12-14-12-10-12-14-12-14-12-10-14-12-10-8-7-7----4-5-7-8-7-5
------------------------------------------------------------------------------------5-7------------
---------------------------------------------------------------------------------------------------

      Και το γλέ-ντι     αρ----------χι-νά---------νε
7----5--7--7----7----5-4-5-7-5--3--2--5-3-2-3-0----------10-12-14-12-10
--------------------------------------------------10-12-14----------------
---------------------------------------------------------------------------

         Κιο--λα  γύ-------ρω τους     τα------ σπά----------------νε
12----10--12--14-15-14-12-12-----10-12-14-12---10-12-10-8-7-7----
----------------------------------------------------------------------
----------------------------------------------------------------------



www.youtube.com/watch?v=eWYLHyKzKTc


Τίτλος: Απ: Παρτιτούρες για Μπαγλαμά Τζουρά 3χορδο μπουζούκι...
Αποστολή από: matzore στις Δεκέμβριος 18, 2009, 11:26:21 πμ
magkes sas efxaristo GIA (TO PENTE ELLINES STON ADI)
prospathisa kai ta dyo tabs tou rebeti mou wgike pio efkola yparxi kai kapio anologo video
http://www.youtube.com/watch?v=Bi4rQUDtZE4


Τίτλος: Απ: Παρτιτούρες για Μπαγλαμά Τζουρά 3χορδο μπουζούκι...
Αποστολή από: alterna στις Δεκέμβριος 19, 2009, 12:19:39 μμ
Ευχαριστώ ρε μάγκες..


Τίτλος: Απ: Παρτιτούρες για Μπαγλαμά Τζουρά 3χορδο μπουζούκι...
Αποστολή από: philipas στις Δεκέμβριος 20, 2009, 11:28:27 πμ
Καλημερα!!!
Μηπως θα μπορουσαμε το ΠΑΡΑΠΟΝΙΑΡΙΚΟ Του Χατζηχρηστου?


Τίτλος: Παραπονιάρικό μου (Απόστολος Χατζηχρήστος, "Σμυρνιωτάκι")
Αποστολή από: ΡΕΜΠΕΤΗΣ στις Δεκέμβριος 20, 2009, 06:16:32 μμ
«ΠΑΡΑΠΟΝΙΑΡΙΚΟ»  -  (Α. ΧΑΤΖΗΧΡΗΣΤΟΣ)

4-----------4--4----4------4-6-4-6-7--8--11-12-8-11-7-8-5-7-4-----
5-4-5-6-5----6--6-6--5-------------------------------------------6--
7--------------------------------------------------------------------

4-----------4--4----4----------------------------------------5--
5-4-5-6-5----6--6-6--5---5-6-5-4--4------------4--4--------5--
7---------------------------------8--8-7-5--8-----8--8-7-8--8--

---------------------------4-7-5-4-----------------4-----------
----------4--5-4------------------6-5-4-6-5-4-5-6--5-6-4-5----
--7-7-8---------8--7--5-4--------------------------------------

Στίχοι
  Ό-τι κιαν έ-χεις στη καρ-διά
--4--------------------------4----4--12-13-12-17-17-16-13-12-11-12----
-----6--5--4--5--6-5-4-6-5--5----5--------------------------------------
-----------------------------7----7--------------------------------------

να μου το λες μι-κρό---- μου
--4---------------------------------7-8-7-12-12-11-8-7-6-7----
-----6--5--4----4----------------------------------------------
--------------8---7-8-6-7--7----7------------------------------

  κιό-χι να κά---θε---σαι------- να κλαι----------αίς
--4--5--7--8----8----11--8--7--6--7----5-7-5-4-4----
------------------------------------------------------
------------------------------------------------------

  πα-ρα-πονιά--------ρι-κο--------- μου
--4--4--5--6--5--5--4--4-----4--5--7-------4--4-5-7----
---------------------------6----------4-5-6---6---------
---------------------------------------------------------

 κιό-χι  να κά---θε---σαι------- να κλαι----------αίς
--4--5--7--8----8----11--8--7--6--7----5-7-5-4-4----
------------------------------------------------------
------------------------------------------------------

   πα--ρα--πο--νιά----------ρι---κο------------- μου
--16--16--17--18--17--17--16--16--13--13--11--12----4------------
---------------------------------------------------------6-5-4-5----
--------------------------------------------------------------------



www.youtube.com/watch?v=kZmdXzO81Xk


Τίτλος: Απ: Παρτιτούρες για Μπαγλαμά Τζουρά 3χορδο μπουζούκι...
Αποστολή από: staurakas στις Δεκέμβριος 20, 2009, 06:31:59 μμ
Mpravo Rempeti
Oraios !
To "pente ellines " pou anevasa einai lanthasmeno,
Tha to diorthoso syntoma.
Signomi Matzore an dyskoleuthikes. Opos einai grammeno ... vevea !


Τίτλος: Πέντε Έλληνες στον Άδη [2] (Γιάννης Παπαϊωάννου - Οδυσσέας Μοσχονάς)
Αποστολή από: staurakas στις Δεκέμβριος 21, 2009, 11:39:32 πμ
Pente ellines ston ADH
(signomizen!)



7-9---9-(7)-(9)-(11)-7-9----(7)-(9)-(11)-7-9-10-7-9-(10)-(9)-(7)-(10)-(9)----



12-14----16-12-14-10-12-10-9-9----16-17-16-14-14-12-14-----



7-9---9-(7)-(9)-(11)-7-9---(7)-(9)-(11)-7-9-10-7-9-(10)-(9)-(7)-(10)-(9)----


12-11-10-9-7-12-11-12-14-9-9----7-6-(9)-6-7-9----


7-9-9---9-7-9-7-9-11-9-7-9-7-(10)-(9)-(9)----


7-9-9-9-7-14-12-14-16-14-12-14-12-10-9--9----



7-9-9---9-7-14-12-14-16-14-12-14-12-10-9-9---


7-9-9---9-7-7-6-7-9-(10)-(9)-(10)-7-(10)-(9)-(7)-


(5)-(7)-(9)-(7)-7-(10)-(9)-(7)--14--12—14-12-10-9-9---



www.youtube.com/watch?v=eWYLHyKzKTc


Τίτλος: Απ: Παρτιτούρες για Μπαγλαμά Τζουρά 3χορδο μπουζούκι...
Αποστολή από: matzore στις Δεκέμβριος 21, 2009, 01:34:13 μμ
 :D :D :D ;D ;D ;D
 ;) GIA TON STAURAKA


Τίτλος: Απ: Παρτιτούρες για Μπαγλαμά Τζουρά 3χορδο μπουζούκι...
Αποστολή από: philipas στις Δεκέμβριος 21, 2009, 02:10:17 μμ
ΔΕΝ ΕΧΩ ΛΟΓΙΑ ΝΑ ΣΕ ΕΥΧΑΡΙΣΤΗΣΩ ΡΕΜΠΕΤΗ ΦΙΛΙΠΠΑΣ !!!!

 :P
ΥΓ.Και τα αλλα παιδια βεβαιως.......


Τίτλος: Απ: Παρτιτούρες για Μπαγλαμά Τζουρά 3χορδο μπουζούκι...
Αποστολή από: alterna στις Δεκέμβριος 23, 2009, 04:55:13 μμ
Μπορεί να γίνει κάτι για το Μόρτισσα χασικλού του Μάρκου?


Τίτλος: Απ: Παρτιτούρες για Μπαγλαμά Τζουρά 3χορδο μπουζούκι...
Αποστολή από: Snake στις Δεκέμβριος 23, 2009, 06:59:31 μμ
Μπορεί να γίνει κάτι για το Μόρτισσα χασικλού του Μάρκου?


Ναι βρε παιδια αν το ξερει καποιος ας το ανεβασει please! Πολυ ζορικο κομματι.
Επισης το Φεγγαρι αν εισαι Λαμπερο καποιος...........


http://www.youtube.com/user/msylvia9


Τίτλος: Απ: Παρτιτούρες για Μπαγλαμά Τζουρά 3χορδο μπουζούκι...
Αποστολή από: ΡΕΜΠΕΤΗΣ στις Δεκέμβριος 25, 2009, 06:54:30 μμ
Χρόνια πολλά σε όλους, καλά Χριστούγεννα


Τίτλος: Απ: Παρτιτούρες για Μπαγλαμά Τζουρά 3χορδο μπουζούκι...
Αποστολή από: matzore στις Δεκέμβριος 26, 2009, 03:48:42 πμ
kala xristougena, ygeia kai kales penies


Τίτλος: Απ: Παρτιτούρες για Μπαγλαμά Τζουρά 3χορδο μπουζούκι...
Αποστολή από: kostas sinaplidis στις Δεκέμβριος 26, 2009, 06:41:36 μμ
Άλα μάγκες! Να'στε όλοι καλά και καλές γιορτές.


Τίτλος: Ένα όμορφο αμάξι με δυο άλογα (Γρηγόρης Μπιθικώτσης)
Αποστολή από: nop77 στις Δεκέμβριος 27, 2009, 11:36:48 πμ
1000 μπράβο σε όλους!! συγχαρητήρια για την δουλειά σας παιδιά

πάρτε και ένα από μένα

ενα ομορφο αμαξι με δυο αλογα ( για μπουζουκι)

0-0--5-5-5-5-5-5-7-8--10-8-7-----8-10-12-10-10-8-8-7-7-5-5-5   (x2)
----------------------------------------------------------------


------------------------------------------------------------------
10-10-10--8-8-8---8-12-12-10-10--8-8-10-12-12--10-10--8-8-6-6-5-5-



-----------------------------------------7-8-10--12-10--10-8-8-7-7--5-5------
10-10-10---8-8-8----8-12-12----10-10-----------------------------------------



www.youtube.com/watch?v=HxZIgwOjeEI


Τίτλος: Απ: Παρτιτούρες για Μπαγλαμά Τζουρά 3χορδο μπουζούκι...
Αποστολή από: matzore στις Δεκέμβριος 31, 2009, 03:24:18 μμ
kalh protoxronia.
Me to kalo to neo etos, ygeia, xara kai agaph


Τίτλος: Απ: Παρτιτούρες για Μπαγλαμά Τζουρά 3χορδο μπουζούκι...
Αποστολή από: filosofos στις Δεκέμβριος 31, 2009, 07:57:26 μμ
αγιε μου βασιλη να ξερεις οτι εχω βγαλει εξω τις μποτες........μην κανεις καμια μαλακια και ριξεις το υπερσπανιο εφταιντσο που σε ζητησα απ την καμιναδα .....γιατι κανει κρυο και εχω το τζακι αναμμενο ;D


Τίτλος: Απ: Παρτιτούρες για Μπαγλαμά Τζουρά 3χορδο μπουζούκι...
Αποστολή από: kostas sinaplidis στις Ιανουάριος 01, 2010, 12:56:54 μμ
Καλή χρονιά 2010!!!

Εύχομαι όλες οι μέρες του 2010 να είναι γεμάτες υγεία, χαρά και... δημιουργικότητα.



Τίτλος: Απ: Παρτιτούρες για Μπαγλαμά Τζουρά 3χορδο μπουζούκι...
Αποστολή από: nikkortis στις Ιανουάριος 02, 2010, 02:36:21 πμ
καλη χρονια παιδες με υγεια πανω απ ολα!!!!

αρχιζω.... http://www.youtube.com/watch?v=TeH2Dcx99AU&feature=related θελει καπιος να βοηθησει να το βγαλουμε... το φιλος εχει ανεβασει και αλλα ... thanx  ;D


Τίτλος: Απ: Παρτιτούρες για Μπαγλαμά Τζουρά 3χορδο μπουζούκι...
Αποστολή από: alexan στις Ιανουάριος 03, 2010, 02:54:42 πμ
παιδες μηπως γνωριζει κανεις το ¨βαθια στην θαλασσα θα πεσω¨ του βαμβακαρη ?

αν σας ειναι ευκολο βαλτε το...ευχαριστω


Τίτλος: Συννεφιασμένη Κυριακή (Β. Τσιτσάνης - Πρ. Τσαουσάκης & Σ. Μπέλλου)
Αποστολή από: thodoris στις Ιανουάριος 03, 2010, 10:50:15 μμ
συννεφιασμενη κυριακη

   ((5)) (3  3  3  5) 2  3  5  9  7  9  7  5  9  7  9  7  5  10  (10)  10  12  12  

14  10  14  12  12  |2|  7  5  3  5  2  3  0  3  2  3  (5)  2  (3)  10  9  7  5  3  2  (5  3)  ((5  2  5))
                          |3|
(3)  (3  3  3  5  3  5)  2  3  5  2  2  2  (3  5 5 5  3  5)  2  3  5  2  (3  5)  2  3  (5  5)  5  3  2  (5)

 |2|  10 9 7  5  7  3  5  2  3  (5)  2  (3  2  3  4  5  5  5)  2  3  5  7  9  7  5  10 10 12  12  14  10
 |3|
 14  12  12  |2| 7  5  3  5  2  3  0  3  2  3  (5)  2  (3)  10  9  7  5  3  2  (5  3  2  3  4  5  5  5)
                 |3|
2  3  5  7  9  7  5  10 10 12  12  14  10  14  12  12  |2|  7  5  3  5  2  3  0  
                                                                                               |3|
3  2  3  (5)  2  (3)  10  9  7  5  3  2  (5  3)

οι κοκκινες παιζονται με τρεμολο και τα ακορντα παιζονται απο τρεις φορες .ελπιζω να μην σας μπερδεψα..καλη χρονια και καλες πενιες



www.youtube.com/watch?v=ZEdMJRydH9o


Τίτλος: Απ: Παρτιτούρες για Μπαγλαμά Τζουρά 3χορδο μπουζούκι...
Αποστολή από: philipas στις Ιανουάριος 07, 2010, 06:44:28 μμ
Καλη Χρονια και Χρονια Πολλα σε ολους,
και παλι ευχαριστουμε που μας μαθαινεται .........!!!!


Τίτλος: Απ: Παρτιτούρες για Μπαγλαμά Τζουρά 3χορδο μπουζούκι...
Αποστολή από: philipas στις Ιανουάριος 07, 2010, 06:51:11 μμ
συννεφιασμενη κυριακη

   ((5)) (3  3  3  5) 2  3  5  9  7  9  7  5  9  7  9  7  5  10  (10)  10  12  12  

14  10  14  12  12  |2|  7  5  3  5  2  3  0  3  2  3  (5)  2  (3)  10  9  7  5  3  2  (5  3)  ((5  2  5))
                          |3|
(3)  (3  3  3  5  3  5)  2  3  5  2  2  2  (3  5 5 5  3  5)  2  3  5  2  (3  5)  2  3  (5  5)  5  3  2  (5)

 |2|  10 9 7  5  7  3  5  2  3  (5)  2  (3  2  3  4  5  5  5)  2  3  5  7  9  7  5  10 10 12  12  14  10
 |3|
 14  12  12  |2| 7  5  3  5  2  3  0  3  2  3  (5)  2  (3)  10  9  7  5  3  2  (5  3  2  3  4  5  5  5)
                 |3|
2  3  5  7  9  7  5  10 10 12  12  14  10  14  12  12  |2|  7  5  3  5  2  3  0  
                                                                                               |3|
3  2  3  (5)  2  (3)  10  9  7  5  3  2  (5  3)

οι κοκκινες παιζονται με τρεμολο και τα ακορντα παιζονται απο τρεις φορες .ελπιζω να μην σας μπερδεψα..καλη χρονια και καλες πενιες

ευχαριστουμε θωδορα αλλα μηπως σου ειναι ευκολο να ξεχωρισεις την εισαγωγη και να μου εξηγησεις αν σου ειναι ευκολο τι ειναι  l 2 l  αυτα?


Τίτλος: Απ: Παρτιτούρες για Μπαγλαμά Τζουρά 3χορδο μπουζούκι...
Αποστολή από: thodoris στις Ιανουάριος 07, 2010, 11:45:47 μμ
   εχεις δικιο φιλιππα,ξεχασα να χωρισω την εισαγωγη...

η εισαγωγη ειναι : ((5)) (3  3  3  5) 2  3  5  9  7  9  7  5  9  7  9  7  5  10  (10)  10  12  12 

14  10  14  12  12  |2|  7  5  3  5  2  3  0  3  2  3  (5)  2  (3)  10  9  7  5  3  2  (5  3)  ((5  2  5))
                          |3|
(3)

 το υπολοιπο ειναι τα λογια αλλα εχει και την εισαγωγη παλι μεσα,πιστευω οτι θα το καταλαβεις.
το |2| και το |3| δεν εμφανισθηκαν οπως ηθελα.ειναι ακορντα,δηλαδη παιζεις ταυτοχρονα το 2 στην κατω ρε και το 3 στην λα.αυτο τρεις φορες οπου εχω τ'ακορντα.
οτιδηποτε αλλο δεν ειναι απολυτος κατανοητο,ρωτηστε με γιατι μαλλον τα κανα μανταρα  ;D


Τίτλος: Απ: Παρτιτούρες για Μπαγλαμά Τζουρά 3χορδο μπουζούκι...
Αποστολή από: abdnm στις Ιανουάριος 08, 2010, 12:04:20 μμ
Μπράβο ρε παιδιά, ωραία όλα τα τραγούδια.

Το "Μες του Βάβουλα τη γούβα" κανείς?


Τίτλος: Μου σπάσανε τον μπαγλαμά (Απόστολος Καλδάρας - Γρηγόρης Μπιθικώτσης)
Αποστολή από: thodoris στις Ιανουάριος 08, 2010, 11:59:50 μμ
 "Μου σπασανε τον μπαγλαμα" απο Καλδαρα

Εισαγωγη: { 6  7  9  7  6  7  [7  8  10  8  7] } τρεις φορες
6  [7     7  8  10  8  7    7  8  10  8  7]
 { 6  7  9  7  6  7  [7  8  10  8  7] } δυο φορες
[7  8  7  8]  6  [8  7  5  3  5  2  3  0  7  8]  6  7  [7  8]  6  7  [8  7  3  0]

λογια "μου σπασανε..."
  7  9  10  9  10  7  9  6  7  [8  7]6  6  6  6  7
ανταποκριση
[7  8]  6  7  [7  8]  6  7  [8  7  3  0]
λογια
7  9  10  9  10  7  9  6  7  [8  7]6  6  7  [8  7]
ανταποκριση
[7  8  10  8  7  7  8  10  8  7  10  8  7  5]
λογια
[5  8 ] 7  6  7  [8] 6  [7  8  5  7  3  2  3]  3  2  3  [5]  2  [3  5  2  3  0]
ανταποκριση
3  2  [3  0]
λογια
[2  3  5  7  3  5  2  3  0  2  3  0]
ανταποκριση
[7  8]  6  7  [7  8]  6  7
λογια "ντριγκι ντριγκι..."
|7|7|10| 10  9  10  7  10  9  10  7  [10  8  7  5  8 ]  7
 ανταποκριση
7  6  9  7
λογια
6  7  [8]  6  [7  8  5  7    2  5  3  5  2  3  0]
ανταποκριση
[7  8]  6  7  [7  8]  6  7

με κοκκινο ειναι το τρεμολο, με μπλε ειναι το ακορντο στο οποιο ο πρωτος αριθμος αναφερεται στην κατω ρε χορδη.η εισαγωγη παιζεται αρκετα γρηγορα οπως και η προτελευταια ανταποκριση



www.youtube.com/watch?v=47tsXjpdn5I


Τίτλος: Μπιρ αλλάχ [2] (Γιάννης Σταμούλης - Στέλλα Χασκήλ, "Σαλονικιά")
Αποστολή από: alterna στις Ιανουάριος 09, 2010, 11:55:47 πμ
Να βάλω και'γώ ένα..Mπιρ-αλλάχ

12 14 12 14 15 14 12 12 10 9 10 9 10 12 10 9 9 7  5  7   5   7   9   7   3 5 3   2   2   0   2  3     5    7   7 10 12 9

12 14 12 14 15 14 12 1210 9 10 9 10  12 10 9 9 7  5  7   5   7   9    7  3 5 3   2   2  14 12 10 9   7 5 3 2 2  3    0

3  2   0    2  4   5   7   9   10   7  10  9         14 12 11   12         14          10   9   7         9   7       5   3

2  2   0    2   4   5   7  9   10   7  10  9         14 12 11   12         14          10   9   7         9   12 10   9


7    7     7    9     11   12   14   10   9    7   5     3  2

14  12   10   9      7    9    10   12   10   9           14  12  11   12    14   10   9   7   9   12  10   9

7    7     7    9     11   12   14   10   9    7   5     3  2

14  12  10   9    7 5 7 3 5 2   14  12  10  9 10  7  9  5  7  3  2  2

Αν κάποιος έχει το Μόρτισσα χασικλού ή το Ώρες με θρέφει ο λουλάς του Μάρκου..



www.youtube.com/watch?v=qAavNKlghfI


Τίτλος: Τούτοι οι μπάτσοι που 'ρθαν τώρα [1] (Γιάννης Ιωαννίδης)
Αποστολή από: alterna στις Ιανουάριος 10, 2010, 12:14:46 μμ
To Mπιρ-Αλλάχ έχει ξαναμπεί αλλά το είδα μετά..
Βάζω ένα που έβγαλα μόνος και περιμένω τις συστάσεις των πιο σχετικών..

Οι Μπάτσοι
Παίζεται στη δεύτερη χορδή


15 14 15 14 15 14 15 17 10 10   (τούτοι οι μπάτσοι που'ρθαν τώρα) χ3


                              

15 14 15 14 15 14 15 17 10 10  


                              0 0 0
8 10 12 8  10 12 8 6 5 5 5  



www.youtube.com/watch?v=8atsham7R90


Τίτλος: Στου Θωμά το μαγαζί (Σταύρος Ξαρχάκος/Κώστας Φέρρης - Κώστας Τσίγγος)
Αποστολή από: kostas sinaplidis στις Ιανουάριος 10, 2010, 09:23:58 μμ
ΣΤΟΥ ΘΩΜΑ (...ΤΟ ΜΑΓΑΖΙ)  Μουσική: Στ. Ξαρχάκος, Στίχοι: Κ. Φέρρης από την ταινία "Ρεμπέτικο"

Εισαγωγή:

---------------5-4-4---------          
5-5-5--5-5-5------6--5-5-5-5            { x 2
-----------------------------

12-12--12-12--10-9--10-12-9-10--
---------------------------------12     { x 2
-----------------------------------

7-8--8-8--8-7-8-10--8-7-----------7-8--10-8--7--7
-------------------------10--9-10------------------
----------------------------------------------------

7-8--8-8--8-7-8-10--8-7-5--4-5--6-5--4-5--4------
-------------------------------------------6---5--5
----------------------------------------------------

---------------5-4-4---------          
5-5-5--5-5-5------6--5-5-5-5            { x 2
-----------------------------

Λόγια:

-----7-7--6-4--6--7--[12-10-9-10-9-7--9-7-6--7--7]                ’ελ’απόψε στου θωμά...
5-5------------------------------------------------
---------------------------------------------------

-----7-7--6-4--6--7--[12-10-9--10-9-----9--------------9-10-11]
5-5----------------------------------12----12-11--12-12--------    να σου παίξω μπαγλαμά...
-----------------------------------------------------------------

12-12--12-12--10-9--10-12-9-10--
---------------------------------12     { x 2            να κατέβουν οι αγγέλοι, να χορέψουν τσιφτετέλι
-----------------------------------

12-0-12-0--12-0-12-0--10-0-9-0--10-12-9-10--
----------------------------------------------12    { x 2 (γέμισμα)
------------------------------------------------

8-8--8-8-7--8-8-7--8-7-5--7-7--7-7-5--7-7-5-4
------------------------------------------------      κι αν μερακλωθείς πολύ, και σ’αρέσει το βιολί
------------------------------------------------


8-8--8-8-7--8-8-7--8-7-5--7-7--7-7-5--7-7-5-4
------------------------------------------------      (γέμισμα)
------------------------------------------------

5-4-------------4--5--7-5--4---4-5--7--7
-----6-5---5-6---------------6-----------                     με βιολί σαντουροβιόλι θα χορέψουν οι διαβόλοι
---------7--------------------------------

5-4-------------4--5--4-5--6-5--4--------
-----6-5---5-6--------------------6--5--5                     με βιολί σαντουροβιόλι θα χορέψουν οι διαβόλοι
---------7--------------------------------

---------------5-4-4---------          
5-5-5--5-5-5------6--5-5-5-5            
-----------------------------

---------------5-4-4---------          
5-5-5--5-5-5------6--5------      
-----------------------------

Sorry για το μήκος του post αλλά το έκανα αναλυτικά....
στα λόγια, οι αγκύλες είναι τα γεμίσματα.



www.youtube.com/watch?v=qDoetQlDU0c


Τίτλος: Απ: Παρτιτούρες για Μπαγλαμά Τζουρά 3χορδο μπουζούκι...
Αποστολή από: Lelis Gougounis στις Ιανουάριος 12, 2010, 01:36:30 πμ
Γεια σας ρε μαγκες και μαγκιτισσες! Εψαχνα καιρο στην ερημο του ιντερνετ για ταμπλατουρες σε ρεμπετικα και εντεχνα και δεν εβρισκα σχεδον τιποτα. Εχω ενθουσιαστει με την προσπάθεια που γινεται εδω και θελω να συμβάλω κι εγω οσο μπορω. Μουσικο αυτι δεν θα ελεγα οτι εχω αλλα πηγαινα 2 χρονια σε ωδειο και εχω αρκετες παρτιτουρες που σκοπευω να μετατρεψω σε ταμπλατουρες και να τις ανεβασω εδω. Επίσης εχω βρει κατι αρχειακια midi που μεσω ενος προγραμματος (sibelius) μπορω να τα κανω παρτιτουρες. Δεχομαι παραγγελιες για να κοιταξω αν το εχω ή αλλιως αν μου το στειλετε σε midi να σας το κανω ταμπλατουρα. Σκοπευω οταν βρω χρονο να ανεβασω το ΜΟΥ ΦΑΓΕΣ ΟΛΑ ΤΑ ΔΑΧΤΥΛΙΔΙΑ, ΤΑ ΜΕΤΑΞΩΤΑ ΤΟΥ ΜΑΛΑΜΑ, ΚΑΝΕΙΣ ΕΔΩ ΔΕΝ ΤΡΑΓΟΥΔΑ και ΣΤΩΝ ΑΓΓΕΛΩΝ ΤΑ ΜΠΟΥΖΟΥΚΙΑ. Υπομονη λιγες μερες. Εγω με τη σειρα μου να ζητησω τον ΑΠΟΣΠΕΡΙΤΗ του Θαναση. Εχω κανει κι εγω μια αρχη θα τη δημοσιευσω και οποιος μπορει την επεκτεινει και την τελειοποιεί. Γενικα ό,τι υπάρχει απο Θαναση με ενδιαφερει μιας και ειναι ο αγαπημενος μου. Νκολας Ασιμος επίσης δεκτος! Καληνυχτα και συγχαρητηρια για την όλη προσπαθεια


Τίτλος: Απ: Παρτιτούρες για Μπαγλαμά Τζουρά 3χορδο μπουζούκι...
Αποστολή από: Strouthos στις Ιανουάριος 12, 2010, 12:23:56 μμ
Ειμαι καινουργιος στο λεγομενο τριχορδο, και ενα απο τα τραγουδια που θα ηθελα να μαθω ηταν -Οι μπατσοι-,  αν εχει καποιος τις ταμπλατουρες γιαυτο θα ηταν υπεροχο, εαν δεν το εχετε απο την αλλη, υπαρχουν αρκετα τραγουδια εδω που ειναι εξισου ωραια.


Τίτλος: Να βάλω τα μεταξωτά (Σωκράτης Μάλαμας - Μελίνα Κανά)
Αποστολή από: Lelis Gougounis στις Ιανουάριος 12, 2010, 07:58:20 μμ
ΤΑ ΜΕΤΑΞΩΤΑ
Παρενθεση=2η χορδη, Διπλη Παρενθεση=τριτη χορδη, 2παυλες μετα το ταστο =μεγαλύτερος χρονος από τη μια παυλα

Εισαγωγή

16-16-14--(16)--(12)-(14)-(16)--
16-16-14--(16)--(12)-(14)--(16)-(16)--

Λογια #1
4-4-2-2--(4)-(4)--(0)-(2)-(4)--    2 φορες
Γεμισμα
 4-2-0--
λογια #2
4-4-2-4--2-4--6-4-0--    2φορες

Εισαγωγη ξανα

Λογια #1 και γεμισμα ξανα

λογια #2 ξανα μια φορα

4-4-2-4--2-4--2-4-7--7-4--

Ρεφραιν
4-6-7-9-7-6-4-7-6-7-6-4-0--
4-6-7-9-7-6-4-7-6-7-6-4-6-4-0--
2-2-2-2--2-2--4-6-2--
(5)-(5)-(4)-(5)--(4)-(5)--2-4-0--
(4)-(4)-(2)-(4)--
(2)-(2)-(0)-(2)--
(0)-(0)-((6))-(0)--(2)--(0)-((6))-((4))--



www.youtube.com/watch?v=rmvbHk5o3KM


Τίτλος: Απ: Παρτιτούρες για Μπαγλαμά Τζουρά 3χορδο μπουζούκι...
Αποστολή από: philipas στις Ιανουάριος 13, 2010, 07:46:34 μμ
Πολυ ωραιος!!!ΜΠΡΑΒΟ


Τίτλος: Απ: Παρτιτούρες για Μπαγλαμά Τζουρά 3χορδο μπουζούκι...
Αποστολή από: alterna στις Ιανουάριος 13, 2010, 08:17:22 μμ
Άντε ρε μάγκες κάποιος τη Μόρτισσα χασικλού γιατί θα σκάσω..έχω ένα σημείο που δεν το βγάζω με τπτ..


Τίτλος: Απ: Παρτιτούρες για Μπαγλαμά Τζουρά 3χορδο μπουζούκι...
Αποστολή από: nikkortis στις Ιανουάριος 13, 2010, 08:29:47 μμ
εμπαινε....Lelis Gougounis ....ωραιος! Θαναση κατι εχουμε ανεβασει....ειναι και δικος μου αγαπημενος!!!! αντε παμε γερα!!!!


Τίτλος: Μου 'φαγες όλα τα δαχτυλίδια (Γ. Μητσάκης - Ε. Σοφρωνίου & Στ. Περπινιάδης)
Αποστολή από: Lelis Gougounis στις Ιανουάριος 14, 2010, 12:33:07 πμ
ΜΟΥ ΦΑΓΕΣ ΟΛΑ ΤΑ ΔΑΧΤΥΛΙΔΙΑ

Παρενθεση=2η χορδη, Διπλη Παρενθεση=τριτη χορδη, 2παυλες μετα το ταστο =μεγαλύτερος χρονος από τη μια παυλα, ταστο με *=τριηχο, 12&(13)= δωδεκατο ταστο πρωτης χορδης και 13ο ταστο δευτερης ταυτοχρονα

Εισαγωγή
10--12-10-12-10-(8 )-(10)-7-8--12*-10*-8*-7-(10)-(8 )-(7)-(5)--
10--12-10-12-10-(8 )-(10)-7-8-9-10-12-10-8-7-8-10-7--
10--12-10-12-10-(8 )-(10)-7-8--12*-10*-8*-7-(10)-(8 )-(7)-(5)--
7-7-5-5-3-3-2-2-0-0--0-(0)-0--0-(0)-0--

Λογια
12--10--(13)--(10)--(12)--(12)--
10-12--12--10--(13)--(12)--(12)--
12-- 10--(13)--(10)--(8 )--(8 )--(10)-7--7--7--(8 )--(5)--(5)--

Γεμισμα
12--10--(13)-(12)-(10)--(8 )*-(10)*-(8 )*-(7)*-(8 )*-(10)*-7--7--7-5-5-3-3-2-2-0-0--0-(0)-0--0-(0)-0--

Ρεφραιν
12&(13)--12&(13)--12&(13)--12&(13)--14&(15)--12&(13)--14&(15)--12&(13)--8&(10)--8&(10)--
14-12-14-12-14-12-8--
(10)--(10)-7-8--10--12--10-8--7-7--5--3--2--0-0--0-(0)-0--0-(0)-0--



www.youtube.com/watch?v=AlcmzJY7L6w


Τίτλος: Κανείς εδώ δεν τραγουδά [1] (Νίκος Παπάζογλου)
Αποστολή από: Lelis Gougounis στις Ιανουάριος 14, 2010, 12:47:37 πμ
ΚΑΝΕΙΣ ΕΔΩ ΔΕΝ ΤΡΑΓΟΥΔΑ

Παρενθεση=2η χορδη, Διπλη Παρενθεση=τριτη χορδη, 2παυλες μετα το ταστο =μεγαλύτερος χρονος από τη μια παυλα

Εισαγωγη
15-17-17-19-15-19-17--17-17--17--
15-17-15-17-14-15--15-15-15--
14-15-14-15-12--10-12-14-15-17-15-14-15-14-12--

Λογια
5-5-3-5--5--3--2-3--3-2-(5)-(3)-(5)-2-3-5-3-2-3-2-0--
5-5-3-5--7--3--2-3--3-2-(5)-(3)-(5)-2-3-5-3-2-3-2-0--

Ρεφραιν
5-5-5-7--8--7-5-7--     2φορες
3-3-3-5--2-2-2-3--(5)-(5)-(5)-(6)--5--3-(6)-3-(6)-(5)-5--
3-3-3-5--2-2-2-3--(5)-(5)-(5)-(6)--5--3-(6)-3-(6)-(5)-(6)-(5)--



www.youtube.com/watch?v=lokMwhP7DNg


Τίτλος: Απ: Παρτιτούρες για Μπαγλαμά Τζουρά 3χορδο μπουζούκι...
Αποστολή από: alterna στις Ιανουάριος 14, 2010, 04:15:06 μμ
Ωραίος ο lelis !!!
Mπορείς να κάνεις κάτι για το Μόρτισσα Χασικλού του Μάρκου?


Τίτλος: Απ: Παρτιτούρες για Μπαγλαμά Τζουρά 3χορδο μπουζούκι...
Αποστολή από: john xatzoglou στις Ιανουάριος 14, 2010, 05:21:21 μμ
καλησπερα κ απο εμενα!αν κ νεος με το τζουραδακι μου νομιζω πως εβγαλα το "καιγομαι".το δινω κ εδω ειμαστε για διορθωσεις:

εισαγωγη:
0-0-0-        -0
0-0-0-3-2-3-0
0-0-0-        -0
  
στιχοι:
  0-2-3-2-4-3-2-4-3-0-0-0  -0-2-3-2-4-3-2-0-0-0-0
3                          -0-0-0-3                       -0-0-0                          
                            -0-0-0                          -0-0-0

ρεφρεν:
4-3-3-2-0-0-0  -0-2-3-4-3-2-3
                   -3-

4-3-3-2-0-0-0  -0-2-3-4-3-2-0
                   -3-


Τίτλος: Απ: Παρτιτούρες για Μπαγλαμά Τζουρά 3χορδο μπουζούκι...
Αποστολή από: Lelis Gougounis στις Ιανουάριος 15, 2010, 12:46:03 πμ
Το ΤΣΙΓΑΡΑΚΙ ΜΟΥ ΣΤΡΙΦΤΟ των Χαινηδων (τραγουδα ο Μαλαμας) που το ζητησε καποιος προηγούμενος, μήπως το καταφερε κανεις; Φιλε alterna απο Μαρκο ξερω τα εξης:
ΜΙΚΡΟΣ ΑΡΡΑΒΩΝΙΣΤΗΚΑ, ΦΡΑΓΚΟΣΥΡΙΑΝΗ, ΤΑ ΜΑΤΟΚΛΑΔΑ, ΨΗΛΑ ΕΙΝ ΤΑ ΠΑΡΑΘΥΡΙΑ ΣΟΥ, ΧΡΟΝΙΑ ΜΕΣ ΣΤΗΝ ΤΡΟΥΜΠΑ, ΝΑ ΠΕΘΑΝΕΙΣ, ΤΟ ΧΡΙΣΤΙΝΑΚΙ, ΠΟΛΛΑ ΕΙΔΑΝ ΤΑ ΜΑΤΙΑ ΜΟΥ, ΗΘΕΛΑ ΝΑ ΜΟΥΝ ΗΡΑΚΛΗΣ, ΜΠΟΥΖΟΥΚΙ ΓΛΕΝΤΙ ΤΟΥ ΝΤΟΥΝΙΑ, ΦΙΝΑ ΤΑ ΧΕΙΣ ΚΑΤΑΦΕΡΕΙ, Ο ΚΑΒΟΥΡΑΣ, ΤΟ ΡΑΣΟ, ΤΟ ΣΥΜΦΕΡΟΝ, ΟΛΟΙ ΟΙ ΡΕΜΠΕΤΕΣ ΤΟΥ ΝΤΟΥΝΙΑ, ΟΣΟΙ ΕΧΟΥΝΕ ΠΟΛΛΑ ΛΕΦΤΑ, ΟΣΟΙ ΓΕΝΟΥΝ ΠΡΟΘΥΠΟΥΡΓΟΙ, ΤΑ ΔΥΟ ΣΟΥ ΧΕΡΙΑ ΠΗΡΑΝΕ, ΜΑΡΚΟΣ Ο ΠΟΛΥΤΕΧΝΙΤΗΣ, ΑΝΤΙΛΑΛΟΥΝ ΟΙ ΦΥΛΑΚΕΣ, ΤΟ ΚΟΡΟΙΔΟ, ΜΑΝΑ ΜΟΥ ΜΕ ΣΚΟΤΩΣΑΝΕ, ΧΡΟΝΙΑ ΣΤΟΝ ΠΕΡΑΙΑ, ΣΚΥΛΑ ΜΕ ΕΚΑΝΕΣ ΚΑΙ ΛΙΩΝΩ,  ΚΑΘΕ ΒΡΑΔΥ ΘΑ ΣΕ ΠΕΡΙΜΕΝΩ, ΣΥΝΑΧΗΣ, ΜΙΑ ΟΜΟΡΦΗ ΜΕΛΑΧΡΟΙΝΗ, ΑΝ ΜΕ ΑΞΙΩΣΕΙ Ο ΘΕΟΣ, ΔΙΑΖΥΓΙΟ, ΙΣΟΒΙΤΗΣ.
 Αν θες καποιο απο αυτα ζητα μου να στο ανεβαζω οταν βρω χρονο.

Η ΛΙΤΑΝΕΙΑ ΤΟΥ ΜΑΓΚΑ (ΣΑΝ ΧΡΙΣΤΙΑΝΟΣ ΟΡΘΟΔΟΞΟΣ)

www.youtube.com/watch?v=g1prYNxCc04

τι σας λεει; Το βγαζει κανεις;


Επισης το ΔΩΜΑΤΙΟ ΣΤΟ ΑΜΣΤΕΡΝΤΑΜ του Ασιμου; Εδω ειναι και μια εκτελεση απο τον Φέρρη και την κομπανια Ονείρου Ελλάς πολύ καλη κατα τη γνωμη μου

http://www.youtube.com/watch?v=7xbNxFrRMi8


Τίτλος: Απ: Παρτιτούρες για Μπαγλαμά Τζουρά 3χορδο μπουζούκι...
Αποστολή από: john xatzoglou στις Ιανουάριος 15, 2010, 01:25:35 πμ
aderfe leli me enthousiases!me tin proti eykairia anevase kapoio apo ayta tou markou etsi gia na xairomaste!!!

ΨΗΛΑ ΕΙΝ ΤΑ ΠΑΡΑΘΥΡΙΑ ΣΟΥ, ΧΡΟΝΙΑ ΜΕΣ ΣΤΗΝ ΤΡΟΥΜΠΑ,ΤΟ ΧΡΙΣΤΙΝΑΚΙ, ΗΘΕΛΑ ΝΑ ΜΟΥΝ ΗΡΑΚΛΗΣ, ΜΠΟΥΖΟΥΚΙ ΓΛΕΝΤΙ ΤΟΥ ΝΤΟΥΝΙΑ, ΜΑΡΚΟΣ Ο ΠΟΛΥΤΕΧΝΙΤΗΣ,ΜΑΝΑ ΜΟΥ ΜΕ ΣΚΟΤΩΣΑΝΕ, ΧΡΟΝΙΑ ΣΤΟΝ ΠΕΡΑΙΑ,ΚΑΘΕ ΒΡΑΔΥ ΘΑ ΣΕ ΠΕΡΙΜΕΝΩ, ΣΥΝΑΧΗΣ, ΜΙΑ ΟΜΟΡΦΗ ΜΕΛΑΧΡΙΝΗ,


y.g.se ligo anevazo ton thermasti tou mpati


Τίτλος: Απ: Παρτιτούρες για Μπαγλαμά Τζουρά 3χορδο μπουζούκι...
Αποστολή από: john xatzoglou στις Ιανουάριος 15, 2010, 01:36:57 πμ
Ο ΘΕΡΜΑΣΤΗΣ

Εισαγωγη:
12-11-12-14-12-10-10-9-10-7-9-6-7-9-10-11-12

12-11-12-14-12-10-10-9-10-7-9-6-7-7-7-7-7

7-6-7-6-3-2-0-2-3-0-2- -0-2-3-6-7
                               -4-

7-6-7-6-3-2-0-2-3-0-2  -0  -0  -0
                               -4  -0  -0

Στιχοι:
3-3-3-6-6-7-6-3-6-7

3-3-3-6-6-7-6-3-2-0  -0  -0
                            -0  -0  -0

αντε κ καλα παιξιματα!!!


Τίτλος: Απ: Παρτιτούρες για Μπαγλαμά Τζουρά 3χορδο μπουζούκι...
Αποστολή από: abdnm στις Ιανουάριος 15, 2010, 12:02:27 μμ
Γεια χαρά σε όλους..

Παιδιά επειδή το θέμα πλέον είναι πολλές σελίδες, όσοι το βρήκατε πρόσφατα ψάξτε λίγο τις παλαιότερες αναρτήσεις...
πολλά τραγούδια έχουν ξανανέβει... βεβαίως ο καθένας έχει την εκδοχή του, κατανοητό..

Ο θερμαστής έχει ξανανέβει, και το καίγομαι καίγομαι, και κάμποσα του Μάρκου...

Καλή συνέχεια, παλεύω το "ζούλα σε μια βάρκα"


Τίτλος: Απ: Παρτιτούρες για Μπαγλαμά Τζουρά 3χορδο μπουζούκι...
Αποστολή από: john xatzoglou στις Ιανουάριος 15, 2010, 07:13:17 μμ
sorry se olous pou anevasa tragoudia pou ypirxan.vrika prosfata tin selida k apo ton enthousiasmo mou eipa na syneisfero


Τίτλος: Απ: Παρτιτούρες για Μπαγλαμά Τζουρά 3χορδο μπουζούκι...
Αποστολή από: nikkortis στις Ιανουάριος 16, 2010, 02:27:39 μμ
sorry se olous pou anevasa tragoudia pou ypirxan.vrika prosfata tin selida k apo ton enthousiasmo mou eipa na syneisfero
δεν πειραζει φιλε!!!ανεβασε οτι εχεις.... μπορει ετσι και αλλιως να ητανε αλλη εκδοση που να βολευε καποιον! μπραβο σε ολους !!! παμε γερα!!!!


Τίτλος: Απ: Παρτιτούρες για Μπαγλαμά Τζουρά 3χορδο μπουζούκι...
Αποστολή από: nikkortis στις Ιανουάριος 16, 2010, 02:45:50 μμ
http://www.youtube.com/watch?v=TeH2Dcx99AU&feature=related εχω βγαλει τα ματια μου μπας και το βγαλω μεσω του video!

Lelis Gougounis  ανεβαζεεεεεεεεεεεεεεεε  ;D


Τίτλος: Η πλημμύρα (Μάρκος Βαμβακάρης, "Φράγκος")
Αποστολή από: abdnm στις Ιανουάριος 16, 2010, 03:48:46 μμ
Η πλημμύρα
(Μάρκος Βαμβακάρης)

-1~3--0-0--1~3--0-0--1~3-1-3-0--7-7-----------------
---0----------0----------0------------------------------
---0----------0----------0------------------------------

-1~3--0-0--1~3--0-0--1~3-1-3-0-----------------------
---0----------0----------0------------------------------
---0----------0----------0----------0-0-----------------

Λόγια
-3-5-5-7-3-3-5-1-3-0-7-7---3-5-5-7-3-3-5-1-3-0---0-0…
---------------------------------------------------------
---------------------------------------------------------


Το (1~3) σημαίνει ότι παίζουμε μαζί την ρε# και τη φα, αλλά πατώντας πρώτα τη ρε# και «δένοντας» με φα… τα κόκκινα είναι γρήγορα. ακούστε =>



www.youtube.com/watch?v=IwHQLzSAz6U


Τίτλος: Απ: Παρτιτούρες για Μπαγλαμά Τζουρά 3χορδο μπουζούκι...
Αποστολή από: Lelis Gougounis στις Ιανουάριος 16, 2010, 04:13:08 μμ
Αδερφε john xatzoglou ο Συναχης και το Ψηλα ειναι τα παραθυρια σου υπαρχουν ηδη. Θα στειλω το μανα μου με σκοτωσανε. Επίσης αν καποιος εχει ορεψη και ξερει, μπορω να του στειλω παρτιτουρες (νοτες) απο αυτα τα τραγουδια του μαρκου που εγραψα πριν και να τα κανει ταμπλατουρες να τα ανεβασει για να τα εχουμε ολα, καθως μονος μου θα μου παρει πολυ ωρα να τα κανω ταμπλατουρες. Παμε γερα!


Τίτλος: Απ: Παρτιτούρες για Μπαγλαμά Τζουρά 3χορδο μπουζούκι...
Αποστολή από: χαρης στις Ιανουάριος 16, 2010, 04:29:15 μμ
στειλετε σε μενα να τις κανω ταμπλατουρες ολες.


Τίτλος: Μάνα με μαχαιρώσανε (Μάρκος Βαμβακάρης, "Φράγκος")
Αποστολή από: Lelis Gougounis στις Ιανουάριος 16, 2010, 04:38:07 μμ
ΜΑΝΑ ΜΟΥ ΣΕ ΣΚΟΤΩΣΑΝΕ ΜΑΡΚΟΣ
Παυλα και χρονος, δηλαδη 3 παυλες τριπλασιος χρονος απο τη μια

Εισαγωγη
7---7---7---10--9--7--9--10-9-10-12-9-7-9-5-7---7--7--      2φορες
2--3--5--7--5--3--5--3--2--(5)--2--(3)--(5)--(2)--(3)---(3)--(3)--
2--3--5--7--5--3--5--3--2--(5)--(3)--(0)--(2)--((5))--(0)---

Λογια
7---7---7---10---7---10---9---7---     2φορες
2--3--5--7--5--7--5--3--2--(5)--2--(5)--(3)--(2)--(3)---
2--3--5--7--5--7--5--3--2--(5)--2--(5)--(3)--(2)--(0)---



www.youtube.com/watch?v=W7-KbenxHik


Τίτλος: Χαράματα η ώρα τρεις (Μάρκος Βαμβακάρης, "Φράγκος")
Αποστολή από: χαρης στις Ιανουάριος 16, 2010, 05:09:59 μμ
το εχω βγαλει με το αυτι.
ειναι μονο η εισαγωγη .

ΧΑΡΜΑΤΑ Η ΩΡΑ ΤΡΕΙΣ

7-6-7-9-10-9-10-12-14-12-14-15-17-15-14-12-15-14-12          7-8- 7 -5
7-6-7-8-6-8 6-7-9-7-9-10-12-10-9-10-7    14-15-14-9-12 -10 -7-6-7-9 -14-12-10-9
7-6-7-9-10-9-10-12-14-12-14-15-17-15-14-12-15-14-12          7-8- 7 -5
7-6-7-8-68 6-7-9-7-9-10-12-10-9-10-7    14-15-14-9-12 -10 -7-7    {7-7-10}

ΜΕ ΚΟΚΚΙΝΟ ΕΙΝΑΙ Η ΜΕΣΑΙΑ ΧΟΡΔΗ ΛΑ ΚΑΙ ΣΤΗΝ ΑΓΚΥΛΗ ΣΥΧΟΡΔΙΑ



www.youtube.com/watch?v=E0wxMYv0h4k


Τίτλος: Απ: Παρτιτούρες για Μπαγλαμά Τζουρά 3χορδο μπουζούκι...
Αποστολή από: nikkortis στις Ιανουάριος 17, 2010, 01:06:36 μμ
ΧΑΡΜΑΤΑ Η ΩΡΑ ΤΡΕΙΣ πολυ ωρα;ιο τραγουδι...εαν μπορει καποιος να το βγαλει.....  ;Dελα να ανεβαζουμε


Τίτλος: Απ: Παρτιτούρες για Μπαγλαμά Τζουρά 3χορδο μπουζούκι...
Αποστολή από: alterna στις Ιανουάριος 17, 2010, 02:44:51 μμ
lelis εγω θα ήθελα τα παρακάτω όταν μπορείς και εχεις χρόνο βέβαια..

ΜΙΚΡΟΣ ΑΡΡΑΒΩΝΙΣΤΗΚΑ, ΧΡΟΝΙΑ ΜΕΣ ΣΤΗΝ ΤΡΟΥΜΠΑ, ΝΑ ΠΕΘΑΝΕΙΣ, ΤΑ ΔΥΟ ΣΟΥ ΧΕΡΙΑ ΠΗΡΑΝΕ, ΜΑΡΚΟΣ Ο ΠΟΛΥΤΕΧΝΙΤΗΣ, ΑΝΤΙΛΑΛΟΥΝ ΟΙ ΦΥΛΑΚΕΣ,, ΧΡΟΝΙΑ ΣΤΟΝ ΠΕΡΑΙΑ, ΣΚΥΛΑ ΜΕ ΕΚΑΝΕΣ ΚΑΙ ΛΙΩΝΩ, ΜΙΑ ΟΜΟΡΦΗ ΜΕΛΑΧΡΟΙΝΗ, ΑΝ ΜΕ ΑΞΙΩΣΕΙ Ο ΘΕΟΣ, ΙΣΟΒΙΤΗΣ.


Τίτλος: Απ: Παρτιτούρες για Μπαγλαμά Τζουρά 3χορδο μπουζούκι...
Αποστολή από: alterna στις Ιανουάριος 17, 2010, 02:55:54 μμ
Έπισης μάγκες να αναφέρω και ένα κλασσικό ρεμπέτικο που θα ήταν καλό να υπάρχει
Του Γενίτσαρη το Εγώ Μαγκάς φαινόμουνα..εξαιρετικό κομμάτι νομίζω..

www.youtube.com/watch?v=35X8t7LyTXw


Αλλά και το Μ`αρεσεις νασαι μαγκισσα του Κερομύτη

www.youtube.com/watch?v=SVNiVfmFtuc


Α και αυτό

www.youtube.com/watch?v=dGhGtuBGexk


και αυτό απο τα μεγαλύτερα του Μεγαλύτερου Μάρκου..

www.youtube.com/watch?v=jOZSRnhbVoU


Τίτλος: Απ: Παρτιτούρες για Μπαγλαμά Τζουρά 3χορδο μπουζούκι...
Αποστολή από: jojo στις Ιανουάριος 20, 2010, 11:36:56 μμ
ωραίος ο χάρης! το "Χαράματα η ώρα τρεις" το ακούω πρώτη φορά και είναι από τα πιο όμορφα κομμάτια. και η εισαγωγή είναι μεγάλο μανίκι ρε αδερφέ! άντε παιδιά να βγει και το υπόλοιπο!

αν γίνεται και κάτι από θανάση παπακωνσταντίνου να βρούμε.. το έχουνε ζητήσει πολλοί εδώ μέσα, απλά το λέω σαν υπενθύμιση σε όποιον έχει το αφτί το καλό και τη μαστοριά!


Τίτλος: Απ: Παρτιτούρες για Μπαγλαμά Τζουρά 3χορδο μπουζούκι...
Αποστολή από: alterna στις Ιανουάριος 23, 2010, 03:37:37 μμ
Μάρκος Βαμβακάρης
Αλάνα Πειραιώτισσα

Πρώτο μέρος
12 11 12 14 12 11 (13 12 11) 11 (13 12 12 11 10 9 9) 11 12 14 12 11 (13 12)
12 11 12 14 12 11 (13 12 11) 11 (13 12 12 11 10 9 9 0 5)                                  χ2

Δεύτερο μέρος (λόγια)
0 4 5 7 8 7 7 6 5 4 12 11 (13 12)
0 4 5 7 8 7 7 6 5 4                           χ2



Τίτλος: Απ: Παρτιτούρες για Μπαγλαμά Τζουρά 3χορδο μπουζούκι...
Αποστολή από: nikkortis στις Ιανουάριος 23, 2010, 06:56:58 μμ
Μάρκος Βαμβακάρης
Αλάνα Πειραιώτισσα

Πρώτο μέρος
12 11 12 14 12 11 (13 12 11) 11 (13 12 12 11 10 9 9) 11 12 14 12 11 (13 12)
12 11 12 14 12 11 (13 12 11) 11 (13 12 12 11 10 9 9 0 5)                                  χ2

Δεύτερο μέρος (λόγια)
0 4 5 7 8 7 7 6 5 4 12 11 (13 12)
0 4 5 7 8 7 7 6 5 4                           χ2


ωραιος! αλλα δυστυχως εχει ξανα μπει


Τίτλος: Εγώ μάγκας φαινόμουνα [1] (Μιχάλης Γενίτσαρης)
Αποστολή από: ΦΑΝΗΣ στις Ιανουάριος 23, 2010, 09:36:13 μμ
καλησπερα σε ολους.
ειμαι ενα νεο μελος που γουσταρα την φαση εδω.
επειδη ειδα οτι ζητηθηκε το "εγω μαγκας φαινομουνα" παρτε το
Παντως οπωσδιποτε θελω το "μη μου ξαναφυγεις πια,μαγκα μου" οποιος το εχει ας το βαλει.

Εισαγωγη

7-5-3-5-3-5-0,7-5-3-5-3-5-0,7-5-3-5-3-5-7-7-5-3-1-0-7-7-7-7

7-5-3-5-3-5-0,7-5-3-5-3-5-0,7-5-3-5-3-5-7-7-5-3-1-0-0-1-3-0-1-(3)-0 (σε παρενθεση στην δευτερη)
                                                                                                     (τις κενες μπορειτε να τις  παιξεται σαν συγχορδια ξερη(ολες οι χορδες κενες και το 7 σαν συγχορδια με τις αλλες δυο χορδες κενες)



τραγουδι

εγω μαγκας...
7-7-8-9-10-12-7-8-7-5-7-7-5-3-1-0-0-1-3-5-7           }
                                                                            }
καταλαβα τα εξυπνα..                                               }
7-7-8-9-10-12-7-8-7-5-7-7-5-3-1-0-0-1-3-0-1-(3)-0   }δυο φορες



www.youtube.com/watch?v=BSDUK3zq5gk


Τίτλος: Απ: Παρτιτούρες για Μπαγλαμά Τζουρά 3χορδο μπουζούκι...
Αποστολή από: jojo στις Ιανουάριος 24, 2010, 05:43:51 μμ
καλησπέρα σε όλους
και πάλι να πω συγχαρητήρια σε όλους όσοι προσπαθούν και κουράζονται για όλα αυτά τα τραγούδια!
ήθελα να προσθέσω μια πρόταση για τους φίλους που τυχαίνει να ανακαλύπτετε κατόπιν εορτής (αφού έχετε κοπιάσει για να βγάλετε και να ανεβάσετε ένα κομμάτι) ότι το ίδιο κομμάτι έχει ήδη ανεβεί παλαιότερα από άλλον φίλο του φόρουμ: αν πατήσετε το κουμπί που λέει "ΕΚΤΥΠΩΣΗ" θα έχετε στη διάθεσή σας και τις 19 σελίδες του φόρουμ (μέχρι στιγμής, μακάρι να τις εκατοστήσουμε) σε μία σελίδα, στην οποία μπορείτε να κάνετε αναζήτηση και να βγάλετε εύκολα άκρη όσον αφορά το τι υπάρχει και τι δεν υπάρχει, τι έχει ανέβει και τι περιμένει από εσάς να το ανεβάσετε.
αυτά, ευχαριστώ. ελπίζω να βοήθησε.

εννοείται βέβαια, κι εδώ παίρνω το θάρρος να μιλήσω εκ μέρους όλων, ότι οποιαδήποτε εκτέλεση / σύλληψη / αντίληψη κομματιού διαφορετική  από την τυχόν ήδη υπάρχουσα είναι ευπρόσδεκτη, όπως είναι και οι διορθώσεις ή οι συμπληρώσεις.


Τίτλος: Αποσπερίτης (Θανάσης Παπακωνσταντίνου)
Αποστολή από: Lelis Gougounis στις Ιανουάριος 24, 2010, 07:02:22 μμ
ΑΠΟΣΠΕΡΙΤΗΣ

Εισαγωγή:
(0)--(0)-(3)-(2)-(0)-0--0-3-2-0-(10)--(10)-(12)-9-(12)-(12)--(7)-(5)-(2)-(0)--
(0)--(0)-(3)-(2)-(0)-0--0-3-2-0-(10)--(10)-(7)-(5)-(2)-(0)--(0)-2-(0)-2-(0)--

Κουπλέ (2φορες)

(0)--2-2-2-2--      
3-3-3-3--              
5-5-5-3-7--3--0--  

Γεμισμα
(0)--(2)-(3)-(5)-2-3-5-7

Ρεφραιν
7--7-7-7-5-7--7--7--         Κι εσυ αποσπερίτη μου
7-5-3-2-0-0-(3)-2-0-0--     του δειλινου ταιριάζεις
((5))--(0)-(2)-(3)-(5)-5--3--2--    Αδολα ειναι τα ματια σου
5-3-2-3-5-7--7--       και μην τα κατεβάζεις


(χιλια ευχαριστω στον Κωστα Μπουρνά που εκανε τη μεταγραφη για κιθαρα στο koiladatwntempwn.gr και με βοηθησε να ξεκολλήσω!)
Τιποτα αλλο απο Θαναση έχουμε;



www.youtube.com/watch?v=3Ai1iXvFqig


Τίτλος: Απ: Παρτιτούρες για Μπαγλαμά Τζουρά 3χορδο μπουζούκι...
Αποστολή από: ΘΟΔΩΡΗΣ στις Ιανουάριος 24, 2010, 07:47:32 μμ
θέλω και γω να βγάλουμε πολύ Θανάση!!!!Έχω ανεβάσει ήδη εδώ τα ''παλιά πληγή'' και ''επιτύμβιο''..

αν πάτε στο www.koiladatwntempwn.gr στην κατηγορία παρτιτούρες και τρίχορδο θα βρείτε σε τρίχορδο αρκετά....τρία ρουμπαγιάτ κτλ...


Τίτλος: Απ: Παρτιτούρες για Μπαγλαμά Τζουρά 3χορδο μπουζούκι...
Αποστολή από: nikkortis στις Ιανουάριος 25, 2010, 12:16:59 πμ
Lelis Gougounis μακαρι να μπορεσεις να το τελειωσεις... ακουγετε καλα νομιζω.... εκει που λες
5-3-2-3-5-7--7--       και μην τα κατεβάζεις μηπως ειναι 5-4-2-4-5-7--7--   ???


Θοδωρη μπηκα στο site του Θαναση Π. και προσπαθησα να κανω εγραφη. εκανα ολα καλα και παω να κανω sign in μετα την εγραφη αλλα δεν .....


Τίτλος: Απ: Παρτιτούρες για Μπαγλαμά Τζουρά 3χορδο μπουζούκι...
Αποστολή από: nikkortis στις Ιανουάριος 25, 2010, 11:04:54 πμ
ολα good με το site του Θαναση Π. κατεβασα τα κομματια και ειναι πολυ καλα απλα θελουνε εξασκηση.... α ρε Θαναση τι εχεις γραψει...... \m/


Τίτλος: Ο Μάρκος μαθητής [1] (Μάρκος Βαμβακάρης, "Φράγκος")
Αποστολή από: alterna στις Ιανουάριος 25, 2010, 05:53:38 μμ
Μάρκος Βαμβακάρης
Ο Μάρκος μαθητής

Μέρος πρώτο
10 10 9 12 10 8 7 6 7 8 8 7 6 7 3 6 7 8 10 9 10
9 10 12 13 15 13 12 10 8 7 8 8 6 7 “x 8 7” “x 8 7”        χ2

Μέρος δεύτερο
“333” 2 3 5 6 6 8 6 5 5 3 3 2 3 “333” “333”                  4x



www.youtube.com/watch?v=Sev2kiEPY_g


Τίτλος: Απ: Παρτιτούρες για Μπαγλαμά Τζουρά 3χορδο μπουζούκι...
Αποστολή από: nikkortis στις Ιανουάριος 25, 2010, 07:51:25 μμ
Μάρκος Βαμβακάρης
Ο Μάρκος μαθητής

Μέρος πρώτο
10 10 9 12 10 8 7 6 7 8 8 7 6 7 3 6 7 8 10 9 10
9 10 12 13 15 13 12 10 8 7 8 8 6 7 “x 8 7” “x 8 7”        χ2

Μέρος δεύτερο
“333” 2 3 5 6 6 8 6 5 5 3 3 2 3 “333” “333”                  4x

τι ειναι το “x 8 7” και το “333” ???


Τίτλος: Απ: Παρτιτούρες για Μπαγλαμά Τζουρά 3χορδο μπουζούκι...
Αποστολή από: megasteve στις Ιανουάριος 26, 2010, 03:09:35 μμ
πολυ καλο το τοπικ!












Τίτλος: Απ: Παρτιτούρες για Μπαγλαμά Τζουρά 3χορδο μπουζούκι...
Αποστολή από: nikkortis στις Ιανουάριος 26, 2010, 05:28:18 μμ
megasteve ωραιος!!! δωσεεεεεεεεεεεεεεε!!!


Τίτλος: Απ: Παρτιτούρες για Μπαγλαμά Τζουρά 3χορδο μπουζούκι...
Αποστολή από: philipas στις Ιανουάριος 26, 2010, 07:33:23 μμ
Βravo Oraios!!!Kala to pas


Τίτλος: Απ: Παρτιτούρες για Μπαγλαμά Τζουρά 3χορδο μπουζούκι...
Αποστολή από: megasteve στις Ιανουάριος 26, 2010, 07:34:03 μμ
υπαρχει το κομματι "γιαλουσενα";


Τίτλος: Απ: Παρτιτούρες για Μπαγλαμά Τζουρά 3χορδο μπουζούκι...
Αποστολή από: megasteve στις Ιανουάριος 26, 2010, 07:41:06 μμ
Βravo Oraios!!!Kala to pas
Σε ευχαριστω Φιλιππα


Τίτλος: Απ: Παρτιτούρες για Μπαγλαμά Τζουρά 3χορδο μπουζούκι...
Αποστολή από: Lelis Gougounis στις Ιανουάριος 26, 2010, 09:42:17 μμ
Τελειωσα τον Αποσπεριτη και απλα εκανα edit το προηγουμενο post μου (1σελιδα πριν) για να μην γεμιζουμε με τα ιδια τραγουδια. Για τσεκαρετε το και πειτε αν ακουγεται καλα. Στο koiladatevntempwn.gr εχει γίνει οντως καλη δουλεια για τον Θαναση, ελπιζω να βαλουν κι αλλα (ειδικα τη "Βερα"). Τσιγαρακι μου στριφτο και συνταγες μαγειρικης απο Χαινηδες παιζουν καθολου; Θα ανεβασω και τη σκυλα του Μαρκου λιαν συντομως για τον φιλο που το ζητησε

Οfftopic: Μηπως πουλαει κανεις τζουρα ή τριχορδο μπουζουκακι; Ψαχνω για μεταχειρισμενο μεχρι 600-700€, αν ξερετε καποιον που να θελει να το δωσει στειλτε μου ενα pm


Τίτλος: Απ: Παρτιτούρες για Μπαγλαμά Τζουρά 3χορδο μπουζούκι...
Αποστολή από: nikkortis στις Ιανουάριος 26, 2010, 11:44:14 μμ
megasteve εισαι ωραιος! μπηκες δυναμικα....


Lelis Gougounis ωραιος ο Αποσπεριτης... θελει δουλεια.... μακαρι να βαλουμε και αλλα απο Θαναση, το συνταγες μαγειρικης απο Χαινηδες.....

δεν ξερω απο που εισαι αλλα δες εδω http://www.aggeliopolis.gr/tessaloniki/Tzoyras_10078619.htm?ca=4_s&last=1
και εδω http://www.aggeliopolis.gr/athina/Mpoyzowki_trixordo_i_tetraxordo_10053912.htm?ca=16_s
αλλα και εδω....http://www.aggeliopolis.gr/athina/Tzoyras_me_thik_10037739.htm?ca=16_s&last=1


Τίτλος: Απ: Παρτιτούρες για Μπαγλαμά Τζουρά 3χορδο μπουζούκι...
Αποστολή από: stamf στις Ιανουάριος 27, 2010, 01:50:28 μμ
Μπράβο ρε παιδιά! Πολύ καλή κίνηση με τις ταμπλατούρες.

Ζητώ και γω χάρη-παραγγελιά άνευ αντιτίμου! Αν μπορεί κανείς να βγάλει σε ταμπλατούρα το ''Φάνταζες σαν πριγκηπέσσα''


Τίτλος: Απ: Παρτιτούρες για Μπαγλαμά Τζουρά 3χορδο μπουζούκι...
Αποστολή από: philipas στις Ιανουάριος 27, 2010, 07:34:26 μμ
Μάρκος Βαμβακάρης
Ο Μάρκος μαθητής

Μέρος πρώτο
10 10 9 12 10 8 7 6 7 8 8 7 6 7 3 6 7 8 10 9 10
9 10 12 13 15 13 12 10 8 7 8 8 6 7 “x 8 7” “x 8 7”        χ2

Μέρος δεύτερο
“333” 2 3 5 6 6 8 6 5 5 3 3 2 3 “333” “333”                  4x



Καλησπερα να του ριξει καποιος μια ματια γιατι κατι δεν μου παει καλα?ειναι ευκολακι για σας νομιζω!!!


Τίτλος: Απ: Παρτιτούρες για Μπαγλαμά Τζουρά 3χορδο μπουζούκι...
Αποστολή από: Jpon στις Ιανουάριος 28, 2010, 04:12:13 μμ
Φόβερο thread, συνεχίστε ακάθεκτοι!Μήπως θα μπορουσε κανείς να ξαναδεί και το "Εγώ μάγκας φαινόμουνα" από Γενίτσαρη, γιατί αυτό που ανέβηκε δεν μου ακούγεται καλά?Βέβαια μπορεί να κάνω κι εγώ λάθος.Ευχαριστώ!


Τίτλος: Απ: Παρτιτούρες για Μπαγλαμά Τζουρά 3χορδο μπουζούκι...
Αποστολή από: alterna στις Ιανουάριος 28, 2010, 04:53:06 μμ
Μάρκος Βαμβακάρης
Ο Μάρκος μαθητής

Μέρος πρώτο
10 10 9 12 10 8 7 6 7 8 8 7 6 7 3 6 7 8 10 9 10
9 10 12 13 15 13 12 10 8 7 8 8 6 7 “x 8 7” “x 8 7”        χ2

Μέρος δεύτερο
“333” 2 3 5 6 6 8 6 5 5 3 3 2 3 “333” “333”                  4x

τι ειναι το “x 8 7” και το “333” ???

Παιδιά το κομμάτι δεν το έβγαλα εγώ το βρήκα σε αλλο site και το πόσταρα εδώ..
και γω δεν ξέρω τι εννοεί ο ποιητής σε αυτά τα σημεία..


Τίτλος: Φάνταζες σαν πριγκηπέσσα [1] (Β. Τσιτσάνης - Μ. Βαμβακάρης & Α. Χατζηχρήστος)
Αποστολή από: ΦΑΝΗΣ στις Ιανουάριος 28, 2010, 05:56:41 μμ
παραγγελια για τον stamf
και βεβαια χωρις αντιτιμο δεν γινεται τιποτα...
θελω το "μη μου ξαναφυγεις πια μαγκα μου"
παρε την πριγκιπεσσα σου...


εισαγωγη

6-6-7-9-7,2-2-5-3-2-0,2-0-2-0--------------------------------------
-------------------------------3-2-0,3-3-2-0-3-2-0-----0-0-2-3-5-7
----------------------------------------------------6-9-------------

6-6-7-9-7,2-2-5-3-2-0,2-0-2-0--------------------------------------
-------------------------------3-2-0,3-3-2-0-3-2-0-----0-0--0--0--0
----------------------------------------------------6-9-----3--3--3-

7-6-7-6-- ----0-2-3-2-0----------------
------- 8-7-5-5---------3-2-0-0-2-3-5-7
--------------0-------------------------

7-6-7-6-- ----0-2-3-2-0-----------------
------- 8-7-5-5---------3-2-0-0--0--0--0
--------------0-----------------3--3--3--


λογια

φανταζες...

7-10-8-8-7-5-8-7,7-10-8-8-7-5-8-7
------------------------------------
------------------------------------

7-8-9-10,10-10-10-8-7-5-3-2-3-5-7-7
-------------------------------------
-------------------------------------

7-8-9-10,10-10-10-8-7-5-3-3-2-2-0-0
--------------------------------------
--------------------------------------

ολα τα λεφτα ειναι η εισαγωγη που θα πεδευτεις να την μαθεις λιγο αλλα οταν την μαθεις θα την παιζεις πρωι μεσημερι βραδυ.ωραιο κομματι παντως
γεια μας................



www.youtube.com/watch?v=wVXlw0sXvLM


Τίτλος: Απ: Παρτιτούρες για Μπαγλαμά Τζουρά 3χορδο μπουζούκι...
Αποστολή από: stamf στις Ιανουάριος 28, 2010, 07:43:31 μμ
Μπράβο ρε Φάνη γίγαντα! έγραψες..! Να σαι καλά..! Μας έφτιαξες !!!
Μακάρι να μπορούσα να σε φτιάξω και γω... είναι πρακτικό το ζήτημα! Άντε γειά μας...

Η πρώτη προσπάθεια είναι μανίκι. Δεν βγαίνει τίποτα. Το αυθεντικό κομμάτι από τσιτσάνι-μαρκο παίζει μάλλον πολυ πιο γρήγορα;

 


Τίτλος: Με τι καρδιά να σ' αποχαιρετήσω (Στ. Ξαρχάκος/Ν. Γκάτσος - Δημ. Παπαμιχαήλ)
Αποστολή από: Παναγιώτης Μιχόπουλος στις Ιανουάριος 28, 2010, 08:44:56 μμ
Καλησπέρα σε όλα τα μέλη... είμαι νέος εδώ και θα ήθελα να ευχαριστήσω όσους συνεισφέρουν σε αυτό το πραγματικά καταπληκτικό thread.
Θα προσπαθήσω να συνεισφέρω και εγώ, έστω κάτι μικρό, σαν δώρο για το καλωσόρισμα....
"Με τι καρδιά να σε αποχαιρετήσω"... δεν ξέρω αν είναι σωστό αλλά το έχω βγάλει με το αυτί..

Λόγια
(4)-4-7-6-11-9-9-(12)-(11)-(9)-(9)

(4)-4-7-6-11-9-9-(12)-(11)-(9)

(7)-7-11-9-12-11-12-11-9-9-11-9-7-7-9-7-6-7-9-11

(7)-7-11-9-12-11-12-11-9-9-11-9-7-7

12-12-16-14-16-14-13-14-12-11-12-11-9-9-11-9-7-7-9-7-6-7-9-11

12-12-16-14-16-14-13-14-12-11-12-11-9-9-11-9-7-7


Ελπίζω να είναι καλό και να σας αρέσει.



www.youtube.com/watch?v=UGJv2F4p-YM



www.youtube.com/watch?v=UGJv2F4p-YMwww.youtube.com/watch?v=UGJv2F4p-YM


Τίτλος: Απ: Παρτιτούρες για Μπαγλαμά Τζουρά 3χορδο μπουζούκι...
Αποστολή από: ΦΑΝΗΣ στις Ιανουάριος 28, 2010, 09:50:04 μμ
Μπράβο ρε Φάνη γίγαντα! έγραψες..! Να σαι καλά..! Μας έφτιαξες !!!
Μακάρι να μπορούσα να σε φτιάξω και γω... είναι πρακτικό το ζήτημα! Άντε γειά μας...

Η πρώτη προσπάθεια είναι μανίκι. Δεν βγαίνει τίποτα. Το αυθεντικό κομμάτι από τσιτσάνι-μαρκο παίζει μάλλον πολυ πιο γρήγορα;

 

Ο καλυτερος τροπος για να βγαλεις ενα τετοιο κομματι ειναι να ακους το τραγουδι καθως το διαβαζεις
ετσι ωστε να μπορεσεις να βγαλεις στο μπουζουκι αυτα που δεν μπορουν να γραφτουν(η ειναι δυσκολο)
στο χαρτι,οπως το ποσο γλυκια ειναι η πενια,το ποσο δυνατη η γρηγορη.Ετσι νομιζω.Πρεπει να κανεις μεγαλη προσπαθεια γιατι ειναι δυσκολο κομματι.Τετοια κομματια παντως ακομα ποιο ευκολα μαθενονται απο καποιον
οταν στα διχνει live.Παντως το να το βγαλεις εσυ σου δινει μεγαλυτερη ευχαριστηση.

Το τραγουδι που κυκλωφορει με τον Μαρκο πρωτη φωνη παιζει πολυ χαμηλα αλλα ειναι πιο ευκολο να το βγαλεις.

το τραγουδι που κυκλωφορει με τον Τσιτσανη παιζει ακριβως στο ιδιο σημειο αλλα οντως ειναι με κατι τρελες τσιτσανιστικες προσθηκες.

Αν εχεις την βαση(παρτιτουρα,ταμλατουρα) μπορεις και εσυ να το βγαλεις ακουγοντας το.

Εμενα παντως μου το δειξανε live.


Τίτλος: Φάνταζες σαν πριγκηπέσσα [2] (Β. Τσιτσάνης - Μ. Βαμβακάρης & Α. Χατζηχρήστος)
Αποστολή από: ΡΕΜΠΕΤΗΣ στις Ιανουάριος 31, 2010, 04:20:51 μμ
Ο φιλος μας stamf ζητησε το «Φανταζες σαν πριγκηπεσσα»
Είναι ένα από τα ωραιοτερα τραγουδια που εχουν γραφτει, και ειμαι σιγουρος πως αν καταφερετε να το βγαλετε, δε θα λειπει από το καθημερινο ρεπερτοριο σας
Ο δρομος που παιζεται είναι Σι Χιτζαζ
Οι γραμμες που ακολουθουν κάθε αριθμο φανερωνουν το χρονο που κραταει η νοτα(περισσοτερες γραμμες = περισσοτερος χρονος)
Παιξτε το στην αρχη αργα για να μπορεσετε να το εκτελεσετε σωστα, και επειτα το παιζετε πιο γρηγορα όπως εχει γραφτει


«ΦΑΝΤΑΖΕΣ ΣΑΝ ΠΡΙΓΚΗΠΕΣΣΑ»

--------1-2-4-5-4---2-1----1-2--2-4-2-1---1-----5-4-7-5-4-2-4----
2-0-2-3-----------------3-2--------------3---2---------------------
--------------------------------------------------------------------

--------1-2-4-5-4---2-1----1-2--2-4-2-1---1-1------1-----1----
2-0-2-3-----------------3-2--------------3---2--2---2-----2----
---------------------------------------------------4-4--4--4----

---------------------------------------------------1------1-----1----
0-2-3-2-3-2-3-2-0-2-3-2-3-2-3-2-0-2-3-2-3-2-3-0-2--2---2-----2----
--------------------------------------------------------4-4--4--4----

5-7-4-7-5-7-4-7-5-7-4-7-5-7-4-7-5-7-4-7-5-7-4-5-2--2---2-----2----
---------------------------------------------------------2----2--2----
----------------------------------------------------------------------

7-9-10-9-10-9-10-9-7-9-10-9-10-9-10-9-7-9-10-9-10-9-10-7-9--9---9-----9----
-------------------------------------------------------------------9----9--9----
--------------------------------------------------------------------------------

Στίχοι
Ε----- μα------θα  πολ--λα   μι-κρο  μου
9------13------10--10-9-7--10--9----9--------
-----------------------------------------------
-----------------------------------------------

ε------μα------θα  πολ--λα   μι-κρο  μου
9------13------10--10-9-7--10--9----9--------
-----------------------------------------------
-----------------------------------------------

         ε--μα-θα-----  πολλα------ μι-κρο  μου
4-5-6-7--7--7--5--4--2--1-----1--2--4----4------
-----------------------------3--------------------
--------------------------------------------------

       που ζα-λι------ζουν το ----   μυαλο   μου
4-5-6-7--7--7--5--4--2--1---1------------------1----
----------------------------3--3--2--2----2-----2----
-----------------------------------------4---4--4----

Στη συνεχεια δεν παιζουμε ξανα ολη την εισαγωγη, αλλα μονο το παρακατω κομματι

---------------------------------------------------1------1-----1----
0-2-3-2-3-2-3-2-0-2-3-2-3-2-3-2-0-2-3-2-3-2-3-0-2--2--2-----2----
--------------------------------------------------------4-4--4--4----

7-9-10-9-10-9-10-9-7-9-10-9-10-9-10-9-7-9-10-9-10-9-10-7-9--9---9-----9----
-------------------------------------------------------------------9----9--9----
--------------------------------------------------------------------------------

Ακολουθουν ξανα στιχοι, και για τελος παιζουμε το παρακατω

8-9----5-4-2-6-7----5-4-2-4-5-4-7-5-4-2-1-2-4--8-9--4--1--------
--------------------------------------------------------------2----
-------------------------------------------------------------------

9-8-9--5-4-2-6-7-6-9-7-5-4-2-4-5-4-7-5-4-2-1----------------1----
------------------------------------------------3-2--2--2------2----
-------------------------------------------------------4----4--4----

---------------------------------------------------1-------1------1----
0-2-3-2-3-2-3-2-0-2-3-2-3-2-3-2-0-2-3-2-3-2-3-0-2--2-2-2--2-2-2----
------------------------------------------------------------------4----

---------------------------------------------------1------1-----1----
0-2-3-2-3-2-3-2-0-2-3-2-3-2-3-2-0-2-3-2-3-2-3-0-2--2--2-----2----
--------------------------------------------------------4-4--4--4----



www.youtube.com/watch?v=wVXlw0sXvLM


Τίτλος: Απ: Παρτιτούρες για Μπαγλαμά Τζουρά 3χορδο μπουζούκι...
Αποστολή από: Snake στις Ιανουάριος 31, 2010, 04:51:14 μμ
Ρεμπετης εισαι αρχοντας!
Αν ξερεις το Φεγγαρι αν εισαι λαμπερο
και τη Μορτισα Χασικλου
θα σου ειμαι αιωνια ευγνωμων!


Τίτλος: Απ: Παρτιτούρες για Μπαγλαμά Τζουρά 3χορδο μπουζούκι...
Αποστολή από: alterna στις Ιανουάριος 31, 2010, 05:06:23 μμ
snake και γω μόλις ζήτησα το Μόρτισσα χασικλού απο τον Ρεμπέτη..αναμένω..


Τίτλος: Απ: Παρτιτούρες για Μπαγλαμά Τζουρά 3χορδο μπουζούκι...
Αποστολή από: stamf στις Ιανουάριος 31, 2010, 07:40:27 μμ
Ρεμπέτη να σαι καλά!!! Έδωσες νόημα σε πολλά γλέντια!! Παιδιά αυτό που γίνεται εδώ δεν έχει προηγούμενο!!


Τίτλος: Απ: Παρτιτούρες για Μπαγλαμά Τζουρά 3χορδο μπουζούκι...
Αποστολή από: matzore στις Φεβρουάριος 01, 2010, 05:52:07 μμ
REBETI eise megaLos DASKALOS
xoris na thelo na ipotimiso kai ta alla paidia pou prospathoun
xoris pareksigisi >:(


Τίτλος: Απ: Παρτιτούρες για Μπαγλαμά Τζουρά 3χορδο μπουζούκι...
Αποστολή από: Lelis Gougounis στις Φεβρουάριος 01, 2010, 08:17:02 μμ
για τσεκαρετε κι αυτο το site:http://www.ioanninablogs.gr/%CE%9C%CE%B1%CE%B8%CE%B1%CE%AF%CE%BD%CE%BF%CE%BD%CF%84%CE%B1%CF%82_%CE%9C%CF%80%CE%BF%CF%85%CE%B6%CE%BF%CF%8D%CE%BA%CE%B9/
To βρηκα τυχαια και εχει ορισμενα τραγουδακια σε ταμπλατουρες και αλλα σε παρτιτουρες για τριχορδα


Τίτλος: Απ: Παρτιτούρες για Μπαγλαμά Τζουρά 3χορδο μπουζούκι...
Αποστολή από: nikkortis στις Φεβρουάριος 02, 2010, 01:50:06 πμ
ΡΕΜΠΕΤΗΣ ανεβαζε ρε φιλε οποτε σου ερχεται και εχεις ορεξη.... ναι καλα... ΜΠΡΑΒΟ σε ολα τα παιδια για την προσπαθεια που κανουμε!!!!!


Τίτλος: Απ: Παρτιτούρες για Μπαγλαμά Τζουρά 3χορδο μπουζούκι...
Αποστολή από: alterna στις Φεβρουάριος 02, 2010, 04:58:51 μμ
Για τσεκάρετε κι αυτό το site:
http://www.spectacularopticals.com/MVA/MVA_tabs.html


Τίτλος: Απ: Παρτιτούρες για Μπαγλαμά Τζουρά 3χορδο μπουζούκι...
Αποστολή από: nikkortis στις Φεβρουάριος 02, 2010, 11:20:20 μμ
alterna αρκετα καλο site....μερικα τα εχουμε βαλει και εμεις.... μπραβο ωραιος!thanx


Τίτλος: Απ: Παρτιτούρες για Μπαγλαμά Τζουρά 3χορδο μπουζούκι...
Αποστολή από: megasteve στις Φεβρουάριος 03, 2010, 06:29:12 μμ
παιδια θερμη παρακληση για τον "μπουφετζη" του Μπατη οποιος μπορει.
ευχαριστω προκαταβολικα!!!


Τίτλος: Απ: Παρτιτούρες για Μπαγλαμά Τζουρά 3χορδο μπουζούκι...
Αποστολή από: Lelis Gougounis στις Φεβρουάριος 06, 2010, 12:07:36 μμ
Γεια σας μαγκες. Λοιπόν χρειάζομαι τη βοήθεια σας. Σε 2 βδομάδες πάω Τουρκία και έχω γνωρίσει μία τουρκάλα άλλο πράγμα... Το αγαπημένο της τραγούδι είναι η ΓΚΙΟΥΛΜΠΑΧΑΡ του Τσιτσάνη. Θέλω να το μάθω στο μπουζουκι μου για να της το παίξω όταν πάω. Όποιος το έχει σε οποιαδήποτε μορφή (παρτιτούρα,midi,ταμπλατούρα) θα με βοηθήσει τρελά! Προσπαθώ και μόνος μου να το βγαλω θα ποσταρω αν καταφερω τιποτα αλλά θέλω μία βαση. Βοηθήστε να προωθήσουμε την ελληνοτουρκική φιλία!!! Όποιος βοηθήσει θα του κάνω 2 μηνες αμανέδες για το ευχαριστώ


Τίτλος: Ο καντηλανάφτης (Θανάσης Παπακωνσταντίνου - Γιώργος Μιχαήλ))
Αποστολή από: υποβρύχιο στις Φεβρουάριος 11, 2010, 02:51:01 μμ
εγω θα βαλω τον καντηλαναφτη απο θανάση.

εισαγωγή:

-11-11--------11--11-11-------11-12-12-11--12-11/12/11-------
-12-12-12-14-----12-12-12-14-------------14--------------14-12-
-14-14------------14-14---------------------------------------------


-11-11--------11--11-11------------------------------------------
-12-12-12-14-----12-12-12-14--12-12-11-9-11-12-12-12-12---
-14-14------------14-14--------------------------------------------

λόγια:

 ητ--άν   ε--νας  βα--ρυ   μα-γκας   ρε-μπε της και α-λα-νι
---11-11-12-11------------------------------------------12-11
-9----------------12-14-14-16-14----9-12-12-14-10-9-------

 που-χε μα-χαι-ρι   δι   ι   κο-πο και σκου  φια-πο-την-μα     νη
-16-16-14-16-18---19-19-18-19--21-22-22-21--19-18--16----23

χο-ο-ρε-υε  ζε-μπε-ε-κι-κο  κι-γη-η θα-ρεις--βο-γκου-ου-σε
-8--8-7--8---9-11-11-9-8----9-11-11-9--8----7---4--4--4--3

 και φτυ-νε  το τα-μπα-α   κο του    σοποιον πε-ρι φρο   νου-σε
-11--11--9--11-13-14--14-13-11------9---9---7-9---11---12-11  


-11--11--9--11-13-14--14-13-11-----9-9--11--7---5-4


κλπ κλπ..



www.youtube.com/watch?v=DpleG7B3Ihk


Τίτλος: Απ: Παρτιτούρες για Μπαγλαμά Τζουρά 3χορδο μπουζούκι...
Αποστολή από: nikkortis στις Φεβρουάριος 11, 2010, 08:55:29 μμ
υποβρύχιο Θεος!!!! μπραβο φιλε... βαζε Θαναση.... χαινηδες και οτι αλλο θελεις και εχεις!!!!! δυσκολο μου φενεται.... θελει προσπαθεια !!!! αλλα θα μου πεις Θανασης και ευκολο δεν γινεται !!!!! γεια σου ρε Θαναση μουσικαρα!!!!!


Τίτλος: Απ: Παρτιτούρες για Μπαγλαμά Τζουρά 3χορδο μπουζούκι...
Αποστολή από: Lelis Gougounis στις Φεβρουάριος 11, 2010, 11:23:10 μμ
Προσκυνω υποβρυχιο και Θαναση! Πολυ καλο ανεβασμα χιλια μπραβο! Αντε γιατι πεσαμε λιγο τις τελευταιες μερες, Απο βδομαδα που τελειωνω εξεταστικη θα συνεισφερω κι εγω


Τίτλος: Απ: Παρτιτούρες για Μπαγλαμά Τζουρά 3χορδο μπουζούκι...
Αποστολή από: megasteve στις Φεβρουάριος 13, 2010, 10:30:01 πμ
καλα παμε!!!


Τίτλος: Απ: Παρτιτούρες για Μπαγλαμά Τζουρά 3χορδο μπουζούκι...
Αποστολή από: mouxtaris dimitris στις Φεβρουάριος 13, 2010, 07:55:23 μμ
bravo se olous sunharitiria.thelo na sas po oti ehi kosmo pou den sumetashi stin kouventa ala sas parakolouthi ke sas thavmazi!!!


Τίτλος: Απ: Παρτιτούρες για Μπαγλαμά Τζουρά 3χορδο μπουζούκι...
Αποστολή από: megasteve στις Φεβρουάριος 14, 2010, 01:10:04 μμ
πολυ καλο!






  















Τίτλος: Απ: Παρτιτούρες για Μπαγλαμά Τζουρά 3χορδο μπουζούκι...
Αποστολή από: nikkortis στις Φεβρουάριος 14, 2010, 03:09:05 μμ
υποβριχιο ολα τα λεφτα του Θαναση... το εβγαλα και ειναι γ@μω...αντε δωσε πραμαααααααααααα

μπραβο παιδες....!!!!!


Τίτλος: Κάτσε ν' ακούσεις μια πενιά (Βασίλης Τσιτσάνης - Στράτος Παγιουμτζής)
Αποστολή από: mouxtaris dimitris στις Φεβρουάριος 15, 2010, 03:36:32 μμ
katse na akousis mia penia. b.tsitsanis.  


eisagogi
----5--4-7-5-8-7-10-9-10-8-9-7-8----7--12-12-12-12-12-12-12--11-12-14-10-9-10-12-8-7-8-10
--5--------------------------------10----------------------------------------------------------
------------------------------------------------------------------------------------------------

--7--8-10-8-7-5--4--5-7-5-4-----------4-5-7-8-7-5-4-------------------------------------------
------------------------------6--5---------------------6-5--------------------------------------
-------------------------------------------------------------------------------------------------

logia
       ka--tse  na--kou seis kia   pe--nia                        ( apantisi )                                    
      pies  ki e-na  po--ti----ra-------ki
--------------4---5---7---10---8---7-----------------4--5--7--8--10--8--7---------------------
------5---6-------------------------------------5--6--------------------------------------------
-------------------------------------------------------------------------------------------------

 ki  an 8es n    pieis ke  ar----g---------ile                                            
---5---5---5---7---8--10--8--7--5----12--------12--11--12--14--10--9--10----12-8--7--8--10-
-------------------------------------------------------------------------------------------------
-------------------------------------------------------------------------------------------------


           pe------ri-----me---ne   li-----ga-------ki
----7----8--10--8--7--5----4----5--7--5--4---------------------4--5--7--8--7--5--4-------------
--------------------------------------------6---5------------------------------------6--5--------
--------------------------------------------------------------------------------------------------

pare seira giati mporei
isos na min prokaneis
mi mas sunvei ti sovaro
kai ti seira sou haneis.


ki an den s aresoun ol auta
pou sou ha pei propistos
o argiles ine etoimos
ke ehei to logo           opios thelei.:)



www.youtube.com/watch?v=GZragBWweeI


Τίτλος: Απ: Παρτιτούρες για Μπαγλαμά Τζουρά 3χορδο μπουζούκι...
Αποστολή από: megasteve στις Φεβρουάριος 15, 2010, 10:20:41 μμ
Μπραβο Δημητρη σε ευχαριστουμε πολυ!!!
Συνεχισε δυναμικα!!!

Αν μπορει καποιος του Γιοβαν Τσαους Αυτο που λεει "το μπουζουκι μου κραταω,το ζεϊμπεκικο βαρω...."
ή τον Μπουφετζη του Μπατη.


Τίτλος: Απ: Παρτιτούρες για Μπαγλαμά Τζουρά 3χορδο μπουζούκι...
Αποστολή από: Παναγιώτης Μιχόπουλος στις Φεβρουάριος 17, 2010, 08:41:21 μμ
Ρε σεις μάγκες... εχω τραλαθεί με ένα κομμάτι του Δελια....
"βρε μάγκα το μαχαίρι σου" ή αλλιώς το "κουτσαβάκι"...



Τίτλος: Το κουτσαβάκι (Βρε μάγκα το μαχαίρι σου) (Ανέστης Δελιάς)
Αποστολή από: thodoris στις Φεβρουάριος 19, 2010, 10:39:45 μμ
      φιλε Παναγιωτη παρε να ευχαριστηθεις  :)

     Κουτσαβακι (Βρε μαγκα το μαχαιρι σου) απο Α.Δελλια

     Εισαγωγη
    (3) 0 1 0 1 0 1    (3) 0 1 0 1 0   (3)   0 4 5 7 4 5 1   0   1   4   5   7
    (3) 0 1 0 1 0 1 0 (3) 0 1 0 1 0   (3)   0 4 5 7 4 5 1   0   0 1 0 1 (3)   0

     Λογια
    0   10   12   14   15   17 19 15  14  12       12 15 14 15 14 12   10   14   12
    0    10 12   14   15   17   14   10   12        12 15 14 15 14 12   10   14   12
    0   7   8   9   10   8   7   5   4    1 0    1   4   4 5   7   5   4   1
    0   7   8   9   10   8   7   5   4   0   1 0   (3)   0         4   7   12
  
    οι αποστασεις που αφησα ειναι ενδεικτικες των χρονων



www.youtube.com/watch?v=NEnCvzL4IWc


Τίτλος: Απ: Παρτιτούρες για Μπαγλαμά Τζουρά 3χορδο μπουζούκι...
Αποστολή από: megasteve στις Φεβρουάριος 19, 2010, 10:49:13 μμ
ωραιος!!!


Τίτλος: Απ: Παρτιτούρες για Μπαγλαμά Τζουρά 3χορδο μπουζούκι...
Αποστολή από: megasteve στις Φεβρουάριος 19, 2010, 10:51:01 μμ
Θοδωρη σε ευχαριστω κ εγω γιατι μου αρεσει κ εμενα αυτο το κομματι εισαι φοβερος!!!!


Τίτλος: Απ: Παρτιτούρες για Μπαγλαμά Τζουρά 3χορδο μπουζούκι...
Αποστολή από: thodoris στις Φεβρουάριος 19, 2010, 11:31:23 μμ
   megasteve αν περιμενεις λιγο ανεβαζω κ το "γιοβαν τσαους"


Τίτλος: Απ: Παρτιτούρες για Μπαγλαμά Τζουρά 3χορδο μπουζούκι...
Αποστολή από: megasteve στις Φεβρουάριος 19, 2010, 11:47:05 μμ
Θοδωρη ανατριχιασα εδω θα μεινω συνδεμενος δεν το κουναω ρουπι,μεχρι να δω το "γιοβαν τσαους"!!!!


Τίτλος: Γιοβάν Τσαούς (Γιάννης Εϊντζιρίδης - Αντώνης Καλυβόπουλος)
Αποστολή από: thodoris στις Φεβρουάριος 19, 2010, 11:49:44 μμ
    "γιοβαν τσαους" απο... γιοβαν τσαους

    Εισαγωγη
    4    5    7    9    10    9  12  10  10  8  7   4    5    7    9    10  10  10  12  14  15  12  14  10
    7    8    9    12    10  10  8  10  7  8  7  7  5    7  8  8  7  8  5  7  4  5     5  5  5  5  4  2
    4    5    7    8  7  8  8  7  7  5  5  4  4  1    5  4  1  0  (3    2  3       3   3   3   3)
    Λογια
    7   9   10  12  10  9  10      7    9    10    12    10  12  10  9  10    10  9  7  5  10
    7    9    10    12    10    8  7  5    7  8  8  7  7  5  5  4  5       4  5  7  9  10  9  10
    7  9    10    12    10    8  7  5    7    8  10  8    7    7  5  5  4  5    5  4    2
    4    5    7    8    8    7    5    4    2    4  5  7  8  7  5  5  4  5  5        4  5  7   9  10  9
    7  9    10    12    10    8  7  5    7    8  10  8    7    7  5  5  4  5    5  4     2
    4    5    7    8    8    7    5    4    2    5  4  1  0  (3   2  3      3   3   3)
    
   οι αποστασεις ειναι ενδεικτικες του χρονου.λιγο δυσκολο και γεματο αλλα πολυ ωραιο κ μελωδικο



www.youtube.com/watch?v=rixDDZArwao


Τίτλος: Απ: Παρτιτούρες για Μπαγλαμά Τζουρά 3χορδο μπουζούκι...
Αποστολή από: megasteve στις Φεβρουάριος 19, 2010, 11:52:23 μμ
Εισαι Αρχοντας 100000 ευχαριστω!!!!!!


Τίτλος: Απ: Παρτιτούρες για Μπαγλαμά Τζουρά 3χορδο μπουζούκι...
Αποστολή από: nickthegreek στις Φεβρουάριος 20, 2010, 10:41:13 πμ
Μπραβο ρε μαγκες... δε μπορειται να φανταστειτε τι κοσμος παρακολουθει αυτο το τοπικ. Μερικοι δεν ειναι καν εγγεγραμμενοι, απλα μπαινουν για να μαθαινουν καινουρια κομματια. Μπραβο σε ολους οσους ανεβαζουν και μοιραζονται με τους υπολοιπους τις γνωσεις τους. Ειναι ισως το μοναδικο τοπικ(για τριχορδο) οπου βρισκεις τοσα πολλα κομματια... και παλι συγχαρητηρια σε ολους οσους αφιλοκερδος μοιραζονται τις γνωσεις τους!


Τίτλος: Απ: Παρτιτούρες για Μπαγλαμά Τζουρά 3χορδο μπουζούκι...
Αποστολή από: Παναγιώτης Μιχόπουλος στις Φεβρουάριος 20, 2010, 11:46:08 πμ
Φίλε Θοδωρή σε ευχαριστώ πάρα πάρα πολύ! Είσαι μεγάλος! Το περίμενα πως και πως...
Δεν υπάρχουν λόγια για το μεράκλωμα που νιώθει η ψυχή μου όταν το ακούω!
Φαντάσου τώρα που θα ρίχνω και εγώ τις πενιές μου!
 Και πάλι σε ευχαριστώ μέσα από την ψυχή μου!


Τίτλος: Απ: Παρτιτούρες για Μπαγλαμά Τζουρά 3χορδο μπουζούκι...
Αποστολή από: alterna στις Φεβρουάριος 20, 2010, 12:49:12 μμ
Μάγκες για δείτε αυτό
http://www.youtube.com/watch#playnext=1&playnext_from=TL&videos=huXNXwM9Hbk&v=0KiJz9OucJc
Πιστεύω ο τύπος το λέει πολύ όμορφα..
Αν το έχει κανείς καλό θα ήταν..


Τίτλος: Απ: Παρτιτούρες για Μπαγλαμά Τζουρά 3χορδο μπουζούκι...
Αποστολή από: χαρης στις Φεβρουάριος 20, 2010, 04:01:16 μμ
   "γιοβαν τσαους" απο... γιοβαν τσαους

    Εισαγωγη
    4    5    7    9    10    9  12  10  10  8  7   4    5    7    9    10  10  10  12  14  15  12  14  10
    7    8    9    12    10  10  8  10  7  8  7  7  5    7  8  8  7  8  5  7  4  5     5  5  5  5  4  2
    4    5    7    8  7  8  8  7  7  5  5  4  4  1    5  4  1  0  (3    2  3       3   3   3   3)
    Λογια
    7   9   10  12  10  9  10      7    9    10    12    10  12  10  9  10    10  9  7  5  10
    7    9    10    12    10    8  7  5    7  8  8  7  7  5  5  4  5       4  5  7  9  10  9  10
    7  9    10    12    10    8  7  5    7    8  10  8    7    7  5  5  4  5    5  4    2
    4    5    7    8    8    7    5    4    2    4  5  7  8  7  5  5  4  5  5        4  5  7   9  10  9
    7  9    10    12    10    8  7  5    7    8  10  8    7    7  5  5  4  5    5  4     2
    4    5    7    8    8    7    5    4    2    5  4  1  0  (3   2  3      3   3   3)
    
   οι αποστασεις ειναι ενδεικτικες του χρονου.λιγο δυσκολο και γεματο αλλα πολυ ωραιο κ μελωδικο

μπορεις να βαλεις και τα λογια ;


Τίτλος: Απ: Παρτιτούρες για Μπαγλαμά Τζουρά 3χορδο μπουζούκι...
Αποστολή από: thodoris στις Φεβρουάριος 21, 2010, 03:10:18 πμ
    "Γιοβαν Τσαους"

Το μπουζούκι μου βαστάω
το ζεϊμπέκικο βαρώ
εμπρός φίλοι σηκωθείτε
και αρχίστε το χορό

Ο Γιοβάν Τσάους βαράει
το μπουζούκι του γλυκά
η κιθάρα ακολουθάει
το ζεϊμπέκικο σιγά

Βάλε κάπελα ρετσίνα
στου Τσαούση την υγειά
για να παίξει το μπουζούκι
να χορέψουν τα παιδιά


Τίτλος: Απ: Παρτιτούρες για Μπαγλαμά Τζουρά 3χορδο μπουζούκι...
Αποστολή από: megasteve στις Φεβρουάριος 21, 2010, 12:09:13 μμ
!
                            



Τίτλος: Απ: Παρτιτούρες για Μπαγλαμά Τζουρά 3χορδο μπουζούκι...
Αποστολή από: ΘΟΔΩΡΗΣ στις Φεβρουάριος 21, 2010, 02:23:26 μμ
Mpravo re paidia...exw xathei k gw ligo tha anevasw en kairw xainides kai kana rempetiko....thelw poly opws k alla paidia fantazomai gia trixordo to 'parata ta' tou asimou k tin 'andromeda' tou thanasi!!

mpoorei kaneis na vgalei tin andromeda pou einai tragoudara???


Τίτλος: Απ: Παρτιτούρες για Μπαγλαμά Τζουρά 3χορδο μπουζούκι...
Αποστολή από: χαρης στις Φεβρουάριος 21, 2010, 03:12:43 μμ
    "Γιοβαν Τσαους"

Το μπουζούκι μου βαστάω
το ζεϊμπέκικο βαρώ
εμπρός φίλοι σηκωθείτε
και αρχίστε το χορό

Ο Γιοβάν Τσάους βαράει
το μπουζούκι του γλυκά
η κιθάρα ακολουθάει
το ζεϊμπέκικο σιγά

Βάλε κάπελα ρετσίνα
στου Τσαούση την υγειά
για να παίξει το μπουζούκι
να χορέψουν τα παιδιά
αν μπορεις να βαλεις τα λογια κατω απο την ταμπλατουρα στο περιπου γιατι εχει πολλες νοτες και δεν το βγαζω.
     7   9   10  12  10  9  10      7    9    10    12    10  12  10  9  10    10  9  7  5  10

ας πουε δω πως πανε τα λογια;

ευχαριστω.


Τίτλος: Απ: Παρτιτούρες για Μπαγλαμά Τζουρά 3χορδο μπουζούκι...
Αποστολή από: thodoris στις Φεβρουάριος 22, 2010, 04:26:04 πμ
φιλε χαρη ακριβως ετσι μπαινουν τα λογια αλλα θα πρεπει να δωσεις κ μεγαλη βαση στις αποστασεις για να το παιξεις σωστα.ελπιζω να βοηθησα.οταν το βγαλεις πες μου πως σου φαινεται

    Το  μπου  ζου-----------κι      μου------     βα    στα-----------ω
    7    9      10  12  10  9  10      7    9    10    12    10  12  10  9  10    10  9  7  5  10
    το  ζεϊ   μπε-------κι------------κο--------βα--------ρω
    7    9    10    12    10    8  7  5    7  8  8  7  7  5  5  4  5       4  5  7  9  10  9  10
    ε  μπρος  φι--------λοι-----------ση   κω-----------θει--------τε----------
    7  9        10    12    10    8  7  5    7    8  10  8    7    7  5  5  4  5    5  4    2
    και---------αρ  χι------στε---------το--------χο-----------ρο
    4    5    7    8    8    7    5    4    2    4  5  7  8  7  5  5  4  5  5        4  5  7   9  10  9
    ε  μπρος  φι--------λοι-----------ση   κω-----------θει--------τε----------
    7  9        10    12    10    8  7  5    7    8  10  8    7    7  5  5  4  5    5  4    2
    και---------αρ  χι------στε---------το--------χο-----------ρο
    4    5    7    8    8    7    5    4    2   5  4  1  0  (3   2  3      3   3   3)
     


Τίτλος: Ο πρεζάκιας (Γιάννης Εϊντζιρίδης - Αντώνης Καλυβόπουλος)
Αποστολή από: thodoris στις Φεβρουάριος 22, 2010, 05:00:28 πμ
 
  Και κατι ακομα απο Γιοβαν Τσαους
           "ο πρεζακιας"

   εισαγωγη x2
   0     5   4   5      7     8   7   5   7   5   4   5          8   7   8     10     10   8   7   10   8   7   8    
   7   8   10      12     12   10   8   10   7   8   5     5   4   5   7   5   4   (6)   4   0      0     0
   λογια
   ει  μαι   πρε  ζα   κιας  μα    θε----το      μα----ο  που  και   αν   πα---------ω
   0   4     4     5     5     7     7   5   4       5   4   5   7    8     7     5     4   5   7
   ο   λοι   φυ   γε   με   λε-----γου---νε      νο----μι  ζουν θα---τους-----φα     γω
   0   4     4     5     5     7   8   7   5   4        5   4   5   7    5   4   (6)   4   0        0
   με βλε  πουν και    σι    χαι   νο   νται---    μα  'γω δυαρα   δεν   δι-----------νω
   5   7     9     10     8     7     8     7     5     5     4   5   7     8     7   5   4   5   7  
   τηνπρε ζα     μο     νο     να    τρα  βω---      και----ό,   τι  θε-----λει  ας  γι       νω
   5   7     9     10     12     10     8     7     5     5   4   5   7    5   4   (6)   4   0        0
  
  10   12     12     7     10     8   8   7     5   5   4   5   4  5   7   8   7   5     4   5   4   5   7   7   7
  8   7   8     10   9   10     12   10   12     8   7   5   5   4   5   7    5   4   (6)   4   0     0     0     0

   Μεσ' το βαγόνι κάθομαι για σπίτι δεν θυμούμαι
   κι ένα τσουβάλι βρώμικο το στρώνω και κοιμούμαι
   Τα ρούχα μου ελειώσανε φάνηκε το κορμί μου
   η πρέζα με φαρμάκωσε τελείωσε η ζωή μου

   Χαρμάνης όταν κάθουμαι πως σκέφτομαι την πείνα
   σαν μαστουρώσω βρε παιδιά δική μου ειν' η Αθήνα
   Σαν αποθάνω φίλε μου έρχεται αστυνομία
   με κάρο σκουπιδιάρικο και κάνει την κηδεία



www.youtube.com/watch?v=GQ9uv6K1xow


Τίτλος: Απ: Παρτιτούρες για Μπαγλαμά Τζουρά 3χορδο μπουζούκι...
Αποστολή από: megasteve στις Φεβρουάριος 22, 2010, 04:32:54 μμ
Θοδωρη δεν εχω λογια.....!!!!
Το "γιοβαν τσαους" βγαινει αψογο κ ειδικα τωρα που εβαλες κ τους στιχους  απο πανω,βοηθησες ακομα περισσοτερο!!!!


Τίτλος: Απ: Παρτιτούρες για Μπαγλαμά Τζουρά 3χορδο μπουζούκι...
Αποστολή από: giwrgos_kiriakopoulos στις Μάρτιος 01, 2010, 12:56:27 μμ
ΠΑΙΔΙΑ ΜΠΡΑΒΟ Κ ΠΑΛΙ ΜΠΡΑΒΟ,
ΠΗΡΑ ΕΝΑ ΜΠΑΓΛΑΜΑΔΑΚΙ ΤΑ ΧΡΙΣΤΟΥΓΕΝΝΑ ΠΕΡΙΠΟΥ, Κ ΜΕ ΒΟΗΘΗΣΑΤΕ ΠΟΛΥ.
ΝΑ ΖΗΤΗΣΩ ΜΙΑ ΧΑΡΗ?
ΘΑ ΜΕ ΚΑΝΑΤΕ ΠΛ ΧΑΡΟΥΜΕΝΟ ΑΝ ΚΑΠΟΙΟΣ ΜΠΟΡΟΥΣΕ ΝΑ ΑΝΕΒΑΣΕΙ ΤΙΣ ΒΕΡΓΟΥΛΕΣ


Τίτλος: Ο Μποχώρης (Παραδοσιακό)
Αποστολή από: megasteve στις Μάρτιος 01, 2010, 09:30:12 μμ
Α-ντε του καϋ-με-νου του "ΜΠΟΧΩΡΗ" α ντε του την σκα-σαν στο βαπο ριιιιιι......

εισαγωγη:

(5 4 5 6)4(5 6 4   5) 7 4(6)4 5 7 4 5(6 5 5 4 5 6 5 4 1 0)

(5 4 5 6)4(5 6 4   5) 7 4(6)4 5 7 4 5(6 5 6 )4 5 7 8 11 12

λογια:

(5)8  7 6  4 6  7    8  7 6  7 6   4 6  7   8  7 6  7 4  7 4  5(6  5 6)4 5   7

(5)8  7 6  4 6  7 4  5(6  5 6  4 5 6 4  5  5) 8  7 6   7   4 5 7 4(6 5 5 6)4 (5 6 7 4 7 4   5 )

11 12   8 11  7 8  5 7  4   5 8  7 5 4(6  5  5 6) 4 5  7

11 12  8 11  7 8  5 7  4  5 8  7 5 4(6  5 6  )4 (5 6 4  5)  Χ2



στιχοι:
Άιντε του καημένου του Μποχώρη
του τη σκάσαν στο βαπόρι
άιντε του τη σκάσαν στο βαπόρι
και του πήραν πεντακόσια
όλο λίρες κι όλο γρόσια

Άιντε τον καημένο το Μποχώρη
τον τυλίξανε στην πλώρη
άιντε τον τυλίξανε στην πλώρη
και του πήραν στο ζάρι
άιντε το καινούργιο του ζουνάρι

Άιντε τον Μποχώρη τον εμπλέξαν
στα στενά και του τις βρέξαν
άιντε στα στενά και του τις βρέξαν
και του κάναν τον γκιουλέκα
άιντε και του πήραν κι άλλα δέκα

Άιντε το 'να μήλο τ' άλλο ρόιδο
άιντε του τη σκάσαν σαν κορόιδο
άιντε του τη σκάσαν σαν κορόιδο
και του πήραν τα ψιλά του
άιντε και τον στείλαν στη δουλειά του



www.youtube.com/watch?v=1WYHHd3kP5Q


Τίτλος: Ο χαρμάνης (Μάρκος Βαμβακάρης, "Φράγκος")
Αποστολή από: χαρης στις Μάρτιος 10, 2010, 07:14:01 μμ
  ΧΑΡΜΑΝΗΣ ΕΙΜΑΙ ΑΠΤΟ ΠΡΩΙ - ΒΑΜΒΑΚΑΡΗΣ

  5 5 5   8 8 8  12 12 11 8 7 7 7   0  4 5 7 8 7 5 4 5 7  4  1  0  
   5 5 5   8 8 8 11  12 12 11 8 7 7 7   5  4 5 7 8 7 5 4   1  0  (0) 0

   7  12  11 12 13  16 13 12 11  13 12 11 8 11 8 7    2 fores
   Χαρμανης ειμαι απτο ......
  7 8 7 5 4 5 7 8 11 12 11 8 7 11 8 7
  μεστον ντεκε του σαλωνα........
  7 8 7 5  4 5 6 7  4 5 7 4 1 4 1 0
  μεστον ντεκε του μιχαλου.... ;D


σχεδον ιδιο ειναι και το τραγουδι ( μπουζουκι μου που ακουγεσαι)



www.youtube.com/watch?v=Hb-wSFtfVGQ


Τίτλος: Απ: Παρτιτούρες για Μπαγλαμά Τζουρά 3χορδο μπουζούκι...
Αποστολή από: hristos στις Μάρτιος 13, 2010, 06:15:05 πμ
Γεια σας παιδιά, μπορεί να 'νεβάσει κανείς <<τα νιάτα τα μπερμπάτικα>> του Τσιτσάνη?


Τίτλος: Απ: Παρτιτούρες για Μπαγλαμά Τζουρά 3χορδο μπουζούκι...
Αποστολή από: G. A. στις Μάρτιος 13, 2010, 04:45:11 μμ
Πολλα μπραβο σε ολους, Παρακαλω μηπως καποιος θα μπορουσε να ανεβασει το "Καυμο μες στη καρδουλα μου"


Τίτλος: Τα όμορφα τα γαλανά σου μάτια (Μάρκος Βαμβακάρης, "Φράγκος")
Αποστολή από: pan στις Μάρτιος 14, 2010, 01:07:17 μμ
Αρχικά ένα μέγαλο μπράβο στα παιδιά που ξεκίνησαν και διατηρούν αυτό το thread. Είμαι εδώ και ένα χρόνο περίφανος κάτοχος ενός τζουρά που έχει γίνει συντροφιά καλή.  Ως νέο μέλος παίρνω το θάρρος να αποτίσω τα σέβη μου και εγώ ....με ότι λαθάκια και αν εμπεριέχει...

Τα όμορφα τα γαλανά σου μάτια...

Εισαγωγή:

11-12--12---9-10--10---7-8--8---5-7--7
5-4-5-7-8-7-5-4-5-6-7-4--1--0
6-6-6-6-7-7-7-7-8-8-8-8--11
12-11-12-13-12-11-(13-12-10)-(9-10-12-10-9)((13-12--13---12)

Τα όμορφά τα.....
7--12-7-8-5-7-4-1-0-1-4-1-4-1-0  Γέμισμα 7-8-7-5-4-1-0-1-0
Που μοιάζουν ....
7--12-12-11-12-13-12-13-12-11-13-12-12 Γέμισμα 11-12-13-16-13-12-11-12
Πόσες καρδιές...
13-12-11-8--7-5--4-5--7-8-8 Γέμισμα 11-8-7-5-4-5-7-8
Έχουν την δύναμη...
12-11-12-13-12-11-8-7-4-1-0-1-4-1-0 Γέμισμα 7-8-7-5-4-1-0-1-0



www.youtube.com/watch?v=DCwXw9kcSkI


Τίτλος: Απ: Παρτιτούρες για Μπαγλαμά Τζουρά 3χορδο μπουζούκι...
Αποστολή από: philipas στις Μάρτιος 14, 2010, 11:37:02 μμ
ΜΠΡΑΒΟ ΠΟΛΥ ΩΡΑΙΑ ΒΓΑΙΝΕΙ ΛΙΓΟ ΤΗΝ ΕΙΣΑΓΩΓΗ ΝΑ ΔΟΥΜΕ ΝΟΜΙΖΩ ΠΩΣ ΚΑΠΟΙΕΣ ΔΙΟΡΘΩΣΟΥΛΕΣ!
ΚΑΙ  ΠΑΜΕ ΓΙΑ ΑΛΛΑ!!!


Τίτλος: Απ: Παρτιτούρες για Μπαγλαμά Τζουρά 3χορδο μπουζούκι...
Αποστολή από: alexandros11 στις Μάρτιος 15, 2010, 05:01:46 πμ
πρωτα απ' ολα θελω να πω ενα μεγαλο μπραβω σε ολους οσους βοηθουν εμας τους νεους οργανοπαιχτες στο εργο μας!!! παιδια εγω ζω στο chicago και προσπαθω να μαθω μπουζουκακι γιατι εχω τρελα με τα ρεμπετικα. απο τοτε που βρικα τη σελιδα εχω μαθει οτι τραγουδι υπαρχει εδω μεσα και με εχετε κανει πολυ χαρουμενο... αλλα θα ηθελα μια χαρη...οποιος μπορει να ανεβασει το "τα δυο σου χερια πηρανε (βεργουλες)" θα με εκανε υπερχαρουμενο!!! συνεχιστε ετσι και αν βγαλω και εγω κατι θα το ανεβασω αμεσως... ευχαριστω προκαταβολικα οποιον το ανεβασει....


Τίτλος: Απ: Παρτιτούρες για Μπαγλαμά Τζουρά 3χορδο μπουζούκι...
Αποστολή από: nikitas_1 στις Μάρτιος 18, 2010, 02:40:57 πμ
 θα ηθελα να ευχαριστησω ολους εσας για την ωραια προσφορα σας.......στους λατρεις των τριχορδων......
προσωπικα...πολλα πολλα ευχαριστω!!!!!!!!


Τίτλος: Η πεντάμορφη (Απόστολος Χατζηχρήστος)
Αποστολή από: hristos στις Μάρτιος 18, 2010, 08:57:50 πμ
              ΠΕΝΤΑΜΟΡΦΗ
Εισαγωγη
--------------4--------------------------------------------4-----7-7-7-7-7-7-7-7-7-7-7
5-5--3-2-3-5---6-5--5-5-3-2-3-5-3-2-3-5--5-5--3-2-3-5-6---6-5-9-9-9-9-9-9-9-9-9-9-9
----------------------------------------------------------------------------------------

12-10-8-7-10-8-7-5-8-7-5-4-7-5-4---------------------4-5-7-8-10-9-8-7-7-7-7-7-7-7-7-7
-----------------------------------6-5-6--5--------5-6-----------------9-9-9-9-9-9-9-9-9
--------------------------------------------7--6-7---------------------------------------

12-10-8-7-10-8-7-5-8-7-5-4-7-5-4-------------------4-5-7-8-7-5-4-----4-4-4-4-4-4-4
-----------------------------------6-5-6--5------5-6---------------6-5--5-5-5-5-5-5-5
--------------------------------------------7-6-7--------------------------------------
ΛΟΓΙΑ
----4------4-4---4-----4--4-4-----------4-----4-4-4-4-4-4-4-4-4-4-0-4-0----
5-6---5--------6---5-5--------6-5---5-6---5---5-5-5-5-5-5-5-5-5-5-------4-3
-----------------------------------7------------------------------------------

------------------------------7---7-5-5-5-4---7---7-0-------------------------------------
3-3-3-3-3-5-3-2-3-2-3-2-3-2-9---9-6-6-6-5---9---9---4-3-3--3-3-3-3-3-5-3-2-3-2-3-2-3-2
-------------------------------------------------------------------------------------------

7-7-5-5-4---4-------                                              4-5-4
9-9-6-6-5---5-----5-Για τελείωμα ξανά η εισαγωγή και 5-6-5
---------------------                                              4-6-4



www.youtube.com/watch?v=Eyp2cTo0SCA


Τίτλος: Απ: Παρτιτούρες για Μπαγλαμά Τζουρά 3χορδο μπουζούκι...
Αποστολή από: marKiS στις Μάρτιος 19, 2010, 10:55:21 μμ
Παρακαλω μηπως καποιος θα μπορουσε να ανεβασει Την Δραπετσώνα  η το νύχτωσε χωρίς φεγγάρι .χίλια ευχαριστώ προκαταβολικά.


Τίτλος: Νύχτωσε χωρίς φεγγάρι [1] (Απόστολος Καλδάρας - Στέλλα Χασκίλ)
Αποστολή από: hristos στις Μάρτιος 20, 2010, 07:03:25 πμ
ΝΥΧΤΩΣΕ ΧΩΡΙΣ ΦΕΓΓΑΡΙ
ΕΙΣΑΓΩΓΗ
10-12--10-12-13-12-10-8-7-----------10-12--10-12-13-12-10-8-7---------7-8-10-8-7
----------------------------10-9----------------------------------10-9-10------------
---------------------------------10-9-------------------------------------------------

10-12--10-12-13-12-10-8-7-------------------7-8-10-8-7-----------12-10-8------------------
----------------------------10-9---------9-10------------10-9--------------10-9--------9-10-
---------------------------------10-9-10----------------------10-9--------------10-9-10-----
ΛΟΓΙΑ
7--4---4----------------8--7-----------7-------7-8---7-5---7-7-8-10-12---10-8-7-5-7--4----4
----6-5--6--5--6-5--5---------10-9-10----9-10-------------------------------------------6-5-
--------------7--------------------------------------------------------------------------------

-----------------------4-5-7-8--8-7-6---7-7-8-10-12--10-8-7-5-7--4----4---------12-10-8-7---------
6--6-5--6-5---5-4-5-6-----------------------------------------------6-5--6-5--6-5----------10-9----
-------7----------------------------------------------------------------------7------------------10-9



www.youtube.com/watch?v=mldi3_rwAM0


Τίτλος: Μόρτισσα χασικλού (Μάρκος Βαμβακάρης, "Φράγκος")
Αποστολή από: alterna στις Μάρτιος 21, 2010, 11:31:05 πμ
Μάρκος Βαμβακάρης
Μόρτισσα Χασικλού

-------------------------------------------------------------------------------------------------------------

---5 ---4-----2-----4------5-----6-----4----5-------5------6----5------4-------2------4-----5--------

-------------------------------------------------------------------------------------------------------------
Μόρτισα που γεννήθηκες




--------------------4----5-----4-------------------------------------------------------------------------

-5----5----6---------------------------6-------5--------5----6---5--------4--------2-------4--------5--

-------------------------------------------------------------------------------------------------------------
μέσα, μέσ' τους τεκέδες,




----5----5-----5-----5--------7--------4--------1--------0-------1---------4-----------------------------

---------------------------------------------------------------------------------------------------------------

---------------------------------------------------------------------------------------------------------------
με μάγκες δεν εφούμαρες ,  


----1------0------------------0---------1------------4-----------------------------------------------------

------------------4------------------------------------------6-------5-------4----------2-----------------

-------------------------------------------------------------------------------------------------------------
τριζάτους αργελέδες.



www.youtube.com/watch?v=ODZ0H4UuhYY


Τίτλος: Δραπετσώνα (Μίκης Θεοδωράκης/Τάσος Λειβαδίτης - Γρηγόρης Μπιθικώτσης)
Αποστολή από: hristos στις Μάρτιος 21, 2010, 10:32:07 μμ
ΔΡΑΠΕΤΣΩΝΑ
ΕΙΣΑΓΩΓΗ
10-12-13-12-13-13-12-10-10--12-10-9-10-12-13-12-10-12--10-12-13-12-13-13-12-10-10--12-10-9-10
------------------------------------------------------------------------------------------------------
------------------------------------------------------------------------------------------------------

12-13-12-10-12-13-12-10-12-12-12--0-5-5-4-4-7-7-5-5-8-8-7-7-10-10-8-13-12-10-8-7-5-4----------
--------------------------------------------------------------------------------------------6-5--5-6-
-----------------------------------------------------------------------------------------------------

4-5-7-8-10-8-7--0-5-5-4-4-7-7-5-5-8-8-7-7-10-10-8-13-12-10-8-7-5-4----------4-5-7-5-8-7-5-4---------
------------------------------------------------------------------------6-5--5-6------------------6-5-3-6
----------------------------------------------------------------------------------------------------------
                ΛΟΓΙΑ
-------4-5-5-5-5-5-4------4-5-7-8-7-----4-5-7-8-10-8-7--4-7-5-4-------------4--5-4--------------
5--5-6---------------6-5-6-----------5-6--------------------------6-5-3-3-5-6--------6-6-5-5--5-6
----------------------------------------------------------------------------------------------------

4-5-7-5-8-7-5-4-----------------4-5-5-5-5-5-4-------4-5-7-8-7-----4-5-7-8-10-8-7--4-7-5-4
-----------------6-5-3-6-5--5-6----------------6-5-6------------5-6-------------------------6-5
-------------------------------------------------------------------------------------------------

--------4--5-4------------4-5-7--8-7-5--5-4-------7-8-10-12-12-12-12-12-12-12-10--13--12-----12-16
3-3-5-6-------6-6-5-5--6--------------------6--5----------------------------------------------12------
--------------------------------------------------------------------------------------------------------

13-13-13-12-10-12-13-10-12-12-10-8-7-5-4-------4-5-7-8-7------4-5-7-8-10-8-7--7-10-8-7-8-9-10
--------------------------------------------6-5--6------------5-6----------------------------------
----------------------------------------------------------------------------------------------------

-10--10-8-7-5-4-----------------4-5-7---8-7-5--5-4-----8-7-5-4-------------4-------------4---------
------------------6-5-3-2-3-5--6--------------------6--5--------6-5-3-5-3-5--6--5-5---3-5--6-5-----
------------------------------------------------------------------------------------------------------

------4-5-7--8-10---8-7--------7-7-8-9-10-8-8-7-7-8-7-5-4----------4-5-7-----7-7-8-9-10-10-10-8-7-----7
3-5-6-------------------10-9-10----------------------------6-5-3-5-5--------10------------------------10--
------------------------------------------------------------------------------------------------------------

---7-8-10-12--12---12-12-13--12-10--8-10-8-7-5-4--4-5-7--8-7-5--5-4-1-5--4-------4-5--7-8--10-12-13-
---------------------------------------------------------------------------------5-6-------------------13-
-------------------------------------------------------------------------------------------------------13-

12
12
13



www.youtube.com/watch?v=4trx0FgXddE


Τίτλος: Απ: Παρτιτούρες για Μπαγλαμά Τζουρά 3χορδο μπουζούκι...
Αποστολή από: Snake στις Μάρτιος 22, 2010, 01:43:48 πμ
alterna να σαι καλα!!
Μονος σου το βγαλες?


Τίτλος: Απ: Παρτιτούρες για Μπαγλαμά Τζουρά 3χορδο μπουζούκι...
Αποστολή από: marKiS στις Μάρτιος 22, 2010, 07:13:26 μμ
ΝΥΧΤΩΣΕ ΧΩΡΙΣ ΦΕΓΓΑΡΙ
ΕΙΣΑΓΩΓΗ
10-12--10-12-13-12-10-8-7-----------10-12--10-12-13-12-10-8-7---------7-8-10-8-7
----------------------------10-9----------------------------------10-9-10------------
---------------------------------10-9-------------------------------------------------

10-12--10-12-13-12-10-8-7-------------------7-8-10-8-7-----------12-10-8------------------
----------------------------10-9---------9-10------------10-9--------------10-9--------9-10-
---------------------------------10-9-10----------------------10-9--------------10-9-10-----
ΛΟΓΙΑ
7--4---4----------------8--7-----------7-------7-8---7-5---7-7-8-10-12---10-8-7-5-7--4----4
----6-5--6--5--6-5--5---------10-9-10----9-10-------------------------------------------6-5-
--------------7--------------------------------------------------------------------------------

-----------------------4-5-7-8--8-7-6---7-7-8-10-12--10-8-7-5-7--4----4---------12-10-8-7---------
6--6-5--6-5---5-4-5-6-----------------------------------------------6-5--6-5--6-5----------10-9----
-------7----------------------------------------------------------------------7------------------10-9



Τίτλος: Απ: Παρτιτούρες για Μπαγλαμά Τζουρά 3χορδο μπουζούκι...
Αποστολή από: hristos στις Μάρτιος 25, 2010, 06:54:19 πμ
Μπορεί κάποιος να 'νεβάσει το << η ζωή μας τελειώνει καφενείο και ταβέρνα?


Τίτλος: Απ: Παρτιτούρες για Μπαγλαμά Τζουρά 3χορδο μπουζούκι...
Αποστολή από: alexandros papageorgiou στις Μάρτιος 29, 2010, 09:16:44 μμ
Καταρχήν μπράβο στον φίλο τον atopo που ξεκίνησε αυτό το θέμα και έπειτα σε όλα τα υπόλοιπα παιδιά που το συνεχίζουν.Σας ευχαριστώ για όλα τα ωραία κομμάτια που μου μάθατε.
Εύχομαι να συνεχίσετε διψάμε για μάθηση μην το παρατάτε ρε μάγκες χρωστάτε ακόμα πολλά τραγουδάκια στους μαθητές σας.
Αυτά,καλό πάσχα σε όλους.


Τίτλος: Απ: Παρτιτούρες για Μπαγλαμά Τζουρά 3χορδο μπουζούκι...
Αποστολή από: matzore στις Απρίλιος 04, 2010, 02:56:17 μμ
xristos anesti
kalo pasxa
kai xronia pola se ola ta paidia


Τίτλος: Μικρός αρραβωνιάστηκα (Μάρκος Βαμβακάρης, "Φράγκος")
Αποστολή από: Lelis Gougounis στις Απρίλιος 05, 2010, 04:35:34 μμ
ΜΙΚΡΟΣ ΑΡΕΒΩΝΙΑΣΤΗΚΑ-ΜΑΡΚΟΣ

Εισαγωγή (γρηγορα)
(3)-(2)-(3)-- (5)-(3)-(5)--(6)-(5)-(6)-4---(6)-(5)-(6)-4-5-7-5-4-(6)-(5)-(6)-4-5-7--7---
(3)-(2)-(3)-- (5)-(3)-(5)--(6)-(5)-(6)-4---(6)-(5)-(6)-4-5-7-5-4-(6)-(5)-(6)-4-(6)-4&(5)--5&(6)--4&(5)--

Λογια (αργα)
0--5-5-5-4-5-6-7--     Μικρός αρεβωνιαστηκα
0--5-5-5-4-5-6-7--     Κοροιδο που πιαστηκα
7-8-5-5-5-6--4-4-5-4-(6)-(5)-(6)-4-5-7--7---  Και πηρα μια μπεμπεκα μαγκιορα για γυναικα
7-8-5-5-5-6--4-4-5-4-(6)-(5)-(6)-4-5-4-(6)-(5)-4&(5)--5&(6)--4&(5)--    Και πηρα μια μπεμπεκα μαγκιορα για γυναικα



www.youtube.com/watch?v=oK7SQqpmCOc


Τίτλος: Απ: Παρτιτούρες για Μπαγλαμά Τζουρά 3χορδο μπουζούκι...
Αποστολή από: alexandros papageorgiou στις Απρίλιος 06, 2010, 04:44:44 μμ
Ωραιος φιλε Leli
Αν μπορεις ρε μαγκα ειδα οτι ξερεις τα δυο σου χερια πηρανε(βεργουλες)
αν βρεις χρονο ανεβασε το φιλε μου σε παρακαλω
Σε ευχαριστω


Τίτλος: Απ: Παρτιτούρες για Μπαγλαμά Τζουρά 3χορδο μπουζούκι...
Αποστολή από: Lelis Gougounis στις Απρίλιος 06, 2010, 04:50:47 μμ
Μου το εχετε ζητησει πολλοι, ακομα και απο pm και πραγματικα προσπαθησα να το ανεβασω αλλα είναι αρκετα δυσκολο (η εισαγωγή θελει μπολικη μαεστρια). Αν μπορει καποιος με περισσότερες γνωσεις να του στειλω παρτιτουρα και να την κανει ταμπλατουρα θα μας διευκολυνε ολους. Αλλιώς υπομονή μέχρι να καταφερω κι εγω να το βγαλω γιατι η παρτιτουρα θελει καποιες αλλαγες


Τίτλος: Απ: Παρτιτούρες για Μπαγλαμά Τζουρά 3χορδο μπουζούκι...
Αποστολή από: alexandros papageorgiou στις Απρίλιος 06, 2010, 09:45:47 μμ
Ωραιος φιλε μου να σαι καλα!!
Ανεβαζε να γουσταρουμε!!!


Τίτλος: Τα δυο σου χέρια πήρανε (Βεργούλες) [1] (Μάρκος Βαμβακάρης, "Φράγκος")
Αποστολή από: Lelis Gougounis στις Απρίλιος 07, 2010, 03:41:38 μμ
ΒΕΡΓΟΥΛΕΣ-ΜΑΡΚΟΣ

Εισαγωγή
(5)-(7)-(8 )-5---7-5-(8 )-5---7-5-(8 )-5---7-(8 )-7-5-7-5-(8 )-(7)-(8 )-5-7-8-7-8-10-7-(10)-7-(8 )-(10)-7-(10)-(8 )-(7)-(8 )-(10)-7-

7&(8 )&((10))--7-8-10-12-9-12-10-12-9-12-10-12-10-8-7-8-(10)-8-7-(10)-(8 )-7-(10)-7-8-10-7-7-7-(10)-(8 )-(10)-7-(8 )-

7&(8 )&((10))--7-8-10-10-9-12-10-10-9-12-10-13-12-10-8-7-5-5-7-5-5-3-3-2-1-0-0-1-0-(3)-(2)-(3)-0&(0)--

Λογια

2--3--5--7--7--7--7--5--7--8--7-- Τα δυο-ο σου χέρια πη-η-ηρανε
7-(10)-(8 )-(10)-7-(8 )-7&(8 )&((10))--    Γεμισμα
2--3--5--7--7--7--7--5--7--8--7-- Βεργου-ουλες και με δει-ει-ειρανε
7-(10)-(8 )-(10)-7-(8 )-7&(8 )&((10))--    Γεμισμα
8--10--9--10--12--10--8--7--(10)--7--(8 )--(10)--8--7--- Βεργου-ου-ουλες και-αι-αι με δει-ει-ει-ρανε
Γεμισμα
8--10--9--10--12--10--8--7--(10)--7--5--3--2--0&(0)--- Και τη-η-η χαρα-α-α μου πη-η-ηρανε



www.youtube.com/watch?v=CHjbyIRnJp0


Τίτλος: Μια όμορφη μελαχρινή (Μάρκος Βαμβακάρης, "Φράγκος")
Αποστολή από: alterna στις Απρίλιος 07, 2010, 07:21:54 μμ
ΜΙΑ ΟΜΟΡΦΗ ΜΕΛΑΧΡΟΙΝΗ
ΜΑΡΚΟΣ ΒΑΜΒΑΚΑΡΗΣ


 -- - - - - - - - - - - - - -- - - - - - - - - - -- - - 7 8 9 10 8 7 5 4 5 7 8 10 8 7 12 12 - - - - - -- - -- -  

 - - - 3  3    6   6   5   5- - - --  - - - - - - - - - - - - - - - - - - - - - - - - - - - - - - - - - - - - - - - - -

- -  - - - - - - - - - - - - - - - - - - - - - - - - - - - - - - --  - - - - - - - - - - - - - - - -  --  - - - - - - - - -



 -  - - - - - - - - - - - - -  - - - - - - - - - - - 7 8 9 10 7 8 5 7 4 5- - - - - - - - -  - - - - - - - - - - - - -

 -- -3   3    6    6   5  5  - - - - - - - - - - - - - - - - -  --  - - - - - - - - - - 6     5     0    5- - - - - - -  

 - - - - - - - - - - - --  - - - - - -  - - - - - - - - - - - - - - - - - - - - - - - - - - -  - - - - - - - - - - - - - - -




 --  - - - - - - - - - - - - -  - - - -  - -4 5 7 8  5 8 7 7 7 7 7 8 10 8 7 5 7 8 7 5 4 - -   - - - - - - - - - -

 - - - - - -5    5   6 - - -- - - - - - - -  - - - - - - - - - -  - - - - - - - - - - - - -  - - - - - - - - -6   5 - - - -  

 - - - - - - - - - - - - - - - - - - -  - - - - - - - -  - - - - - - - - - - - - - - - - - -  - - - - - - - - - - -  - - - - -



 - - - - - - - - -  - - - - - - - - - - -  - 4 5 7 8  5 8 7 7 7 7 7 8 10 8 7 5 7 - - - - - - - - - - - - - - - -

 - - - - -5    5    6 - - - -- - -  - - - - - - - -- - - - -  -- - -  - - - - --  - - - - - - - - - - - - - - - - - - - -  

- -  - - - - - - - - - -  - - - - - - - - - - -  - - - - - - - - - - - - - - - - - - - - - - - - - - - - - -- -  - - - - - - -



 - - - - - 5  5  5  5 - - - - -8  7   5    4 -  - - -  - - - - - - - 4          4    4     5    8     7      5     4     5   7- -

 --  --  - - --  - - - --  - - - - - - - - - - - - - -6   5    6 - - - - - - - - - - - - - - - -  - - - - - - - - - - - - - - - - -

 - -- -  - - - - - - - - - - - - - - - - - - - - - - - - - - - - - - - - - -  - - - - - - - - - - - - - - - - - - - - - - - - -



 -  - - - - 5  5  5  5  - - - - - 8  7   5    4- - - - - - - - - - - - 4- - -  - 4  4    5   7  5  4   - - - - - - - - - - - -

-  -- -  - - - - - - - - - -- - -  --  --  - --  -- -  - 6   5    6- - - - - - - - - - - - - - - - - - - - - - - - -6  5 - - --  - -

- - - -  - - - -  -- -  - - - - - - - - - - - - - --  - - - - - - - - - - - - - - - - - - - - - - - - - - - - - - - - - - - - - - - -



www.youtube.com/watch?v=tEPeCbo77Pc


Τίτλος: Απ: Παρτιτούρες για Μπαγλαμά Τζουρά 3χορδο μπουζούκι...
Αποστολή από: Lelis Gougounis στις Απρίλιος 07, 2010, 11:02:55 μμ
Παιδες μπορει καποιος να ανεβασει το ΜΗ ΜΟΥ ΞΑΝΑΦΥΓΕΙΣ ΠΙΑ ΜΑΓΚΑ ΜΟΥ? Ειναι απο αχτυπητο διδυμο Μπελλου-Τσιτσανη. Οποιος το παιζει πλιζ ας κανει ενα κοπο να ανεβασει μια ταμπλατουρα θα του ειμαι υποχρεος


Τίτλος: Απ: Παρτιτούρες για Μπαγλαμά Τζουρά 3χορδο μπουζούκι...
Αποστολή από: alexandros11 στις Απρίλιος 08, 2010, 12:03:49 πμ
Α ρε Leli μου εφτιαξες τη μερα ρε αρχοντα....Σηκωθηκα το πρωι και ειδα ανεβασμενα το μικρος αρεβωνιαστηκα και τις βεργουλες......δεν τα εχω προσπαθησει ακομα αλλα οτι και να ναι ευχαριστω πολυ...


Τίτλος: Απ: Παρτιτούρες για Μπαγλαμά Τζουρά 3χορδο μπουζούκι...
Αποστολή από: kyuss στις Απρίλιος 08, 2010, 10:53:36 πμ
Paidia xilia mpravo!!!!opoios mporesei re paidia na anevasei kapoia stigmh to pws tha perasei h vradya tha tou eimai poly eugnwmwn..epishs to arap zeibekiko opoios kserei tou markou,to kraso pinw,ton kaiksh...ayta thelw na vgalw alla dn exw xrono...k pali mpravo se olous re paidia!!!!!EYXARISTW prokatavolika!!!!


Τίτλος: Απ: Παρτιτούρες για Μπαγλαμά Τζουρά 3χορδο μπουζούκι...
Αποστολή από: Lelis Gougounis στις Απρίλιος 08, 2010, 11:57:53 πμ
Ο καιξης θα ανεβει, απο βδομαδα ομως γιατι την κοπαναω για κρητη σημερα και δεν θα εχω ιντερνετ. Τα φιλια μου σε ολους/ες και αν μπορει καποιος ας βγαλει αυτα που εχω ζητησει παραπανω, θενξ εγκεν


Τίτλος: Απ: Παρτιτούρες για Μπαγλαμά Τζουρά 3χορδο μπουζούκι...
Αποστολή από: kyuss στις Απρίλιος 08, 2010, 05:48:09 μμ
s'eyxaristw poly!!!!ki'egw parepiptontws gia krhth tha eimai aytes tis meres....k kanena apo ta allla pou egrapsa an kserei kanei tha me vohthhsei poly...


Τίτλος: Απ: Παρτιτούρες για Μπαγλαμά Τζουρά 3χορδο μπουζούκι...
Αποστολή από: giwrgos_kiriakopoulos στις Απρίλιος 09, 2010, 04:44:29 μμ
ΕΥΧΑΡΙΣΤΩ ΠΟΛΥ ΓΙΑ ΤΙΣ ΒΕΡΓΟΥΛΕΣ !


Τίτλος: Απ: Παρτιτούρες για Μπαγλαμά Τζουρά 3χορδο μπουζούκι...
Αποστολή από: Jpon στις Απρίλιος 12, 2010, 03:39:28 πμ
Υπάρχει κανείς που να μπορεί να ανεβάσει την κομματάρα του Μάρκου "Ψηλά την χτίζεις την φωλια"???


Τίτλος: Απ: Παρτιτούρες για Μπαγλαμά Τζουρά 3χορδο μπουζούκι...
Αποστολή από: alterna στις Απρίλιος 12, 2010, 09:11:44 πμ
Υπάρχει κανείς που να μπορεί να ανεβάσει την κομματάρα του Μάρκου "Ψηλά την χτίζεις την φωλια"???
Έχει ανέβει ήδη με τον τίτλο ''Ψηλά τα παραθύρια σου''


Τίτλος: Απ: Παρτιτούρες για Μπαγλαμά Τζουρά 3χορδο μπουζούκι...
Αποστολή από: kyuss στις Απρίλιος 13, 2010, 05:27:30 μμ
Mgkes mhpws lew mhhhhpws exei prospathhsei kaneis kanena apo ayta pou zhthsa??mexri thn allh evdomada tha exw anevasei to xxronia ston peraia k an prolavw kanadyo organika tou markou!!!!!!!!!!


Τίτλος: Απ: Παρτιτούρες για Μπαγλαμά Τζουρά 3χορδο μπουζούκι...
Αποστολή από: PhreakeR στις Απρίλιος 15, 2010, 08:35:12 μμ
geia sas magkes mou psaxnw ta en logw tragoudia..

valte mou dyo kanavouries (otan pethanw thapste me)
egw magkas fainomouna (eidika tin eisagwgi den mporw na tin vgalw)
o katadikos-antwnis kalyvopoulos kai mousiki-stixoi tou giovan tsaous..
i litaneia tou magka-o arxaggelos..

opoios mporei na voithisei tou eimai eugnwmwn...



Τίτλος: Απ: Παρτιτούρες για Μπαγλαμά Τζουρά 3χορδο μπουζούκι...
Αποστολή από: kyuss στις Απρίλιος 19, 2010, 06:41:13 μμ
magkes sas eixa yposxethei kapoia tragoudakia apla mou etyxan pragmata aproopta k dn mporesa...mexri to telos ths evdomadas to arap zeibekiko tha to exete sigoura!!!!


Τίτλος: Τσιγαράκι μου στριφτό (Δημήτρης Αποστολάκης - Σωκράτης Μάλαμας)
Αποστολή από: thanos2121 στις Απρίλιος 20, 2010, 01:18:04 μμ
Λοιπόν μάγκες,είμαι καινούριος στην ομάδα αλλά επειδή παίζω 5 χρόνια πάρτε από μένα το "Τσιγαράκι μου στριφτό" του Μάλαμα. Επειδή δεν υπάρχει μια σειρά στο τραγούδι (εισαγωγή,κουπλέ,ρεφραίν) και τα παιζει μπερδεμένα,το βάζω ολόκληρο...Τα ίδια κομμάτια επαναλαμβάνονται...

Τσιγαράκι μου στριφτό

Στίχοι-Μουσική: Δημήτρης Αποστολάκης

Εισαγωγή:

1η: 4-0-2---4-0-2----------------------------------4-5-4-2-1-2-4-6-7-6-7-9-7-7-5-5-4
2η: ------------------5-5-7-4-4-5-4-5-7-5-4-2-----------------------------------------


1η: 2-2-2-4-0------------------------4--4-----------------
2η: -------------4-5-4-5-7-5-4-2-----2--2----2-0-----0-2
3η:-------------------------------------------------6----

Λόγια:

1η: 4-0-2-2-4-4-0-2----7-6-7-6-6-7-7-5-5-4-----9-7-9-4-5-7-7-5-4-2-------------------------
2η: --------------------------------------------------------------------5-5-3-3-5-3-2-----


1η:---------------------
2η: -5-2-3-2-5-3-5-3-2

1η: 4-0-2-2-4-4-0-2----7-6-7-6-6-7-7-5-5-4-----9-7-9-4-5-7-7-5-4-2---0-2-4-5-7-7-5-5-4

1η: 9-7-9—4-5-7-7-5-4-2-------------------
2η: ----------------------------5-5-3-3-5-3-2

1η: 4-5-4-2-1-2-4-6-7-6-7-9-7-7-5-5-4--2-2-2-4-0------------------------4—4----------------
2η: --------------------------------------------------4-5-4-5-7-5-4-2-----2--2----2-0-----0-2
3η: -------------------------------------------------------------------------------------6------


1η: 4-0-2-2-4-4-0-2----7-6-7-6-6-7-7-5-5-4-----9-7-9-4-5-7-7-5-4-2-------------------------
2η: ----------------------------------------------------------------------5-5-3-3-5-3-2-----

1η: 4-0-2---4-0-2----------------------------------4-5-4-2-1-2-4-6-7-6-7-9-7-7-5-5-4
2η: ------------------5-5-7-4-4-5-4-5-7-5-4-2------------------------------------------------


1η: 2-2-2-4-0------------------------4--4-----------------
2η: -------------4-5-4-5-7-5-4-2-----2--2----2-0-----0-2
3η:-------------------------------------------------6----



www.youtube.com/watch?v=dgDCylZ6qcE


Τίτλος: Απ: Παρτιτούρες για Μπαγλαμά Τζουρά 3χορδο μπουζούκι...
Αποστολή από: Lelis Gougounis στις Απρίλιος 21, 2010, 12:04:36 πμ
Φιλε με το τσιγαρακι μου στριφτο τα εσπασες! Το ειχα ζητησει παλαιοτερα αυτο το τραγουδακι αλλα ειχα χασει καθε ελπιδα. Μου φτιαξες τη μερα, καλωσηρθες στο φορουμ και μην σταματησεις εδω!
Edit: Μηπως εχεις και τις συνταγές μαγειρικής πάλι απο Χαίνηδες;


Τίτλος: Απ: Παρτιτούρες για Μπαγλαμά Τζουρά 3χορδο μπουζούκι...
Αποστολή από: thanos2121 στις Απρίλιος 21, 2010, 02:31:41 μμ
Λυπάμαι φίλε αλλά το τσιγαράκι μου στριφτό είναι το μοναδικό τραγούδι που ξέρω από αυτούς.
Και μια ερώτηση.....

Υπάρχει κανείς που να ξέρει την τίγρη του ψαραντώνη (ειδικά η εισαγωγή με έχει πεθάνει)....
Όποιος μπορεί ας το ανεβάσει.....



Τίτλος: Απ: Παρτιτούρες για Μπαγλαμά Τζουρά 3χορδο μπουζούκι...
Αποστολή από: nikkortis στις Απρίλιος 21, 2010, 04:58:56 μμ
ωραιος φιλε thanos2121 ... βαλε οτι γνωριζεις!!!! απο ρεμπετικα μεχρι και οτι στυλ γουσταρεις!!!! και περιποιημενο 1η, 2η, 3η χορδη μπραβο ρε φιλε!


Τίτλος: Απ: Παρτιτούρες για Μπαγλαμά Τζουρά 3χορδο μπουζούκι...
Αποστολή από: thanos2121 στις Απρίλιος 22, 2010, 10:08:30 πμ
Ευχαριστώ nikkortis. Θα συνεχίσω να ανεβάζω και άλλα τραγούδια σε αυτό το στυλ γραφής,είτε υπάρχουν είτε όχι στο forum (μερικά είναι εντελώς δυσανάγνωστα), αλλά οι ρυθμοί μου θα είναι λίγο αργοί λόγω έλλειψης χρόνου....
Τώρα έχω σχεδόν έτοιμο το "πρέζα όταν πιεις". Υποθέτω ότι μέχρι την κυριακή θα το έχω ανεβάσει...

ΥΓ. Την τίγρη παιδιά,μην ξεχνιόμαστε...


Τίτλος: Απ: Παρτιτούρες για Μπαγλαμά Τζουρά 3χορδο μπουζούκι...
Αποστολή από: nikkortis στις Απρίλιος 22, 2010, 11:32:18 μμ
thanos2121 συνεχισε φιλε ετσι ! περιμενουμε και αλλα τραγουδια σου!!! ωραια η Τιγρη .... ελπιζω καποιος να την ξερει και να την ανεβασει!


Τίτλος: Ο Μάρκος μαθητής [2] (Μάρκος Βαμβακάρης, "Φράγκος")
Αποστολή από: kyuss στις Απρίλιος 25, 2010, 11:29:28 πμ
o markos mathitis(exei anevei k paliotera alla htan lathos)

eisagwgh
10-9-12-10-8-7-6-7-8-7-6-7-3-6-7-10
-----------------------------------
-----------------------------------

10-12-10-9-10-12-13-15-13-12-13-10-8-7-6-7-3--3---3
------------------------------------------------3----3
---------------------------------------------------



www.youtube.com/watch?v=Sev2kiEPY_g
logia
--3-2-3-5-6-5-6-5-5-3-3-2-3---3---3
3---------------------------3---3--
-----------------------------------


Τίτλος: Είμαι πρεζάκιας (Πρέζα όταν πιεις) (Σ. Ιωαννίδης/Α. Σαββίδης - Ρόζα Εσκανάζη)
Αποστολή από: thanos2121 στις Απρίλιος 26, 2010, 01:05:56 μμ
Σας το έταξα για την Κυριακή,αλλά το δίνω με μια μέρα καθυστέρηση...Πιάστε τα όργανα....

Πρέζα όταν πιεις

Στίχοι: Αιμίλιος Σαββίδης
Μουσική: Σώσος Ιωαννίδης


Εισαγωγή:

1η: --4-5-7-4-5----4-4-5-4-----------4-5-7-4-5----4-4-5-4-------
2η: 5-------------6----------6-5---5-------------6-----------6-5---

1η: 5-5-5-5-4-------4-4-5-4-------5-5-5-5-4-------4-4-5-4---------------------------------------
2η: -----------6-5------------6-5--------------6-5------------6-5----3-5-5-3-3-5--3-5-5-3-3-5---


Κουπλέ:

1η: --4-5-7-4-5----------------------4-5-7-8-7-5-7---10-10-10-10-8-7-5-8---4-5-7-4----4---------
2η: 5-------------6-5--5-3-3-5-----5--------------------------------------------------6-----6-5--


1η: --------------4-5-7-8-7-5-7-5-4----4-5-7-8-7-5-10-12---11-12-13-12-10-8-7-10-8-5-
2η: 5-3-3-5---5----------------------5----------------------------------------------------


1η: 4-5-7-4---4----------------------
2η: ---------6----6-6-5---5-3-3-5—


Ρεφραίν:

1η: ------------------------------4-5-7-8-7-5-4----5-4------4------
2η: 3-5-6-3-5---3-5-6-3-5---------------------- 6------6-5----6-5-


1η: --------------------------7-8-10-12-10-8-7-5-4---4------
2η: 3-5-6-3-5---3-5-6-3-5---------------------------6--6-5



www.youtube.com/watch?v=qHVxX9DZbq0


Τίτλος: Απ: Παρτιτούρες για Μπαγλαμά Τζουρά 3χορδο μπουζούκι...
Αποστολή από: nikkortis στις Απρίλιος 27, 2010, 09:49:48 μμ
thanos2121 τι να σου πω ρε φιλε? μπραβο σου!!!! εισαι ωραιος! μας εφτιαξες... περιμενουμε οσα πιο πολλα μπορεις!  ;D


Τίτλος: Ρίχνω ζάρια (Αδέσποτο - Γιάννης Λεμπέσης)
Αποστολή από: thanos2121 στις Απρίλιος 28, 2010, 11:22:42 πμ
Λοιπόν.....

Έχω και άλλα τραγούδια σε αυτό το στυλ γραφής αλλά τα περισσότερα έχουν ήδη ανέβει.

Αν θέλετε να τα ανεβάσω,πείτε μου...

Βάζω ένα παράδειγμα....Πιάστε τα όργανα και αρχίστε....Ένα από τα πιο αλήτικα τραγούδια που έχει γραφτεί ποτέ

Ρίχνω ζάρια

Στίχοι-Μουσική: Άγνωστο


Εισαγωγή-Λόγια:

1η: 3-3-3-3--------5-3-3-3-3----------
2η: ----------3-5--------------3-5-5-5

1η: 10-10-10-10-10-8-7-5-7-3-5-2-3-3-3----10-10-10-10-10-8-7-5-7-3-5-1-0-0-0



www.youtube.com/watch?v=uXDsmkJEL2E


Τίτλος: Απ: Παρτιτούρες για Μπαγλαμά Τζουρά 3χορδο μπουζούκι...
Αποστολή από: kyuss στις Απρίλιος 28, 2010, 12:00:57 μμ
thanos 2121 oti exeis....k eidika an exeis to kraso pinw h ton kaiksh tha me kaneis poly xaroumeno!!!!!to kraso pinw exw vgalei kati alla einai ligo mysthrio k dn exw xrono!!!


Τίτλος: Απ: Παρτιτούρες για Μπαγλαμά Τζουρά 3χορδο μπουζούκι...
Αποστολή από: alexandros papageorgiou στις Απρίλιος 28, 2010, 12:59:57 μμ
Θανο σε ευχαριστουμε ρε φιλε !!
Ανεβαζε οτι γουσταρεις να γουσταρουμε και εμεις!
Ρε παιδια ξερει καποιος "Του δρομου το παιδι" απο Βαγγελη Παπαζογλου?
Αξιζει να ανεβει αν το ξερει καποιος μαγκες!


Τίτλος: Απ: Παρτιτούρες για Μπαγλαμά Τζουρά 3χορδο μπουζούκι...
Αποστολή από: thanos2121 στις Απρίλιος 28, 2010, 01:52:11 μμ
Παιδια,θα προσπαθησω να ανεβασω οσα μπορω....Την τιγρη δεν την ξερει κανενας?

Και κατι ακομη....Εγω τωρα αρχισα να παιζω ρεμπετικα (2-3 μηνες περιπου). Το ρεπερτοριο μου ειναι πιο πολυ Μητροπανος και τετοιου ειδους τραγουδια που ειναι λαικα και εντεχνα. Τετοια δεν ανεβαζω γιατι δεν ειναι στο στυλ του forum.Απο ρεμπετικα,οτι ξερω,θα το γραφω και θα το μοιραζομαι μαζι σας....


Τίτλος: Απ: Παρτιτούρες για Μπαγλαμά Τζουρά 3χορδο μπουζούκι...
Αποστολή από: ΘΟΔΩΡΗΣ στις Απρίλιος 28, 2010, 05:03:40 μμ
Γεια σας παίδες....χάθηκα λίγο αλλά επανήλθα...καταρχήν thano ότι έχεις βγάλει και μπορείς ανέβαζέ το εδώ βοηθάς πολύ κόσμο!!!Και Μητροπάνο που έχει ωραιότατα τραγούδια και ότι άλλο θες,μη κολλάς..Μπορεί να ανεβάσεις τραγούδια που αρέσουν σε κόσμο,δε χάνουμε τίποτα να ανέβουν..Έτσι κι αλλιώς εδώ πέρα από ρεμπέτικα έχει ανέβει και Μάλαμας και Θανάσης και Χαίνηδες και Παπάζογλου κτλ κτλ..

εγώ έχω ψιλοβγάλει και θα ανεβάσω μέσα στις επόμενες μέρες ακροβάτη από Χαίνηδες,τρία ρουμπαγιάτ του Θανάση,πώς να σωπάσω Ξυλούρης και από Άσιμο τα δωμάτιο στο Άμστερνταμ,Εγώ με τις ιδέες μου και παράτα τα.Αυτά είναι ωραία βεβαια όταν συνοδεύονται από μία κιθάρα μαζί με τη γραμμή του μπουζουκιού.

Υ.Γ Παίδες δεν το 'χω προσπαθήσει,αλλα κάποιος να ανεβάσει καλά την ΤΙΓΡΗ!!!!!!!!!



Τίτλος: Απ: Παρτιτούρες για Μπαγλαμά Τζουρά 3χορδο μπουζούκι...
Αποστολή από: nikkortis στις Απρίλιος 28, 2010, 06:29:17 μμ
thanos2121 ανεβασε οτι εχεις... και οτι θελεις μιας και δεν ειναι μονο για ρεμπετικα το φορουμ.... το τοπικ ετσι και αλλιως λεγεται Παρτιτούρες για Μπαγλαμά Τζουρά 3χορδο μπουζούκι... ασχετα που εμεις γουσταρουμε ρε μπετικα... ανεβασε οτι εχεις....  ;D


Τίτλος: Απ: Παρτιτούρες για Μπαγλαμά Τζουρά 3χορδο μπουζούκι...
Αποστολή από: tsiblinidis στις Απρίλιος 28, 2010, 11:12:16 μμ
thanos2121 ωραίος! Ευχαριστούμε, ήταν καλογραμμένο το κομάτι.. Συνέχισε!!!


Τίτλος: Απ: Παρτιτούρες για Μπαγλαμά Τζουρά 3χορδο μπουζούκι...
Αποστολή από: philipas στις Απρίλιος 29, 2010, 11:48:41 πμ
Καλημερα σε ολους πολυ ωραιο το τραγουδακι "ριχνω ζαρια" μηπως θα μπορουσες να γραψεις και τουσ στιχους αν ειναι ευκολο?Γιατι δεν τους βγαζω ολους!!!







Λοιπόν.....

Έχω και άλλα τραγούδια σε αυτό το στυλ γραφής αλλά τα περισσότερα έχουν ήδη ανέβει.

Αν θέλετε να τα ανεβάσω,πείτε μου...

Βάζω ένα παράδειγμα....Πιάστε τα όργανα και αρχίστε....Ένα από τα πιο αλήτικα τραγούδια που έχει γραφτεί ποτέ

Ρίχνω ζάρια

Στίχοι-Μουσική: Άγνωστο


Εισαγωγή-Λόγια:

1η: 3-3-3-3--------5-3-3-3-3----------
2η: ----------3-5--------------3-5-5-5

1η: 10-10-10-10-10-8-7-5-7-3-5-2-3-3-3----10-10-10-10-10-8-7-5-7-3-5-1-0-0-0



Τίτλος: Απ: Παρτιτούρες για Μπαγλαμά Τζουρά 3χορδο μπουζούκι...
Αποστολή από: thanos2121 στις Απρίλιος 30, 2010, 10:45:27 πμ
Ρίχνω ζάρια
Οι στίχοι του τραγουδιού για τον φίλο philipas

Σημείωση: Δεν ξέρω αν είναι αυτή η σειρά των στίχων. Το τραγούδι γράφτηκε γύρω στο 1910-1920 μέσα σε φυλακή και δεν είχε ηχογραφηθεί ποτέ. Οπότε γίνεται κατανοητό ότι οι στίχοι μπορεί να αλλάζουν σε κάθε εκτέλεση...


ρίχνω ζάρια,φέρνω άσσοι
άϊντε με μπλοκάρανε οι μπάτσοι
άϊντε ρίχνω ζάρια φέρνω εξάρες
άϊντε μας τα φάγαν οι αλανιάρες

ρίχνω ζάρια,φέρνω ντόρτια
άιντε μπρος της γκόμενας τη πόρτα
άιντε ρίχνω ζάρια φέρνω εξαρες
άιντε μας τα φάγαν οι αλανιάρες

κάθε μέρα στο μπαρμπούτι
μου τη φέρνουν μπαλαμούτι
άιντε στο μπαρμπούτι,στο μπαρμπούτι
μου τη φέρνουν μπαλαμούτι

αρχινάτε και κουνάτε
και ποτέ μη σταματάτε
άιντε με τα ζάρια στ'ασπροκούτι
και αρχινάτε το μπαρμπούτι
 
τη νταμίρα,τη νταμίρα
μου την έμαθε μια χήρα
άιντε με έκανε και αλανιάρη
άιντε χασικλή και κουρελιάρη.


Τίτλος: Απ: Παρτιτούρες για Μπαγλαμά Τζουρά 3χορδο μπουζούκι...
Αποστολή από: philipas στις Απρίλιος 30, 2010, 12:17:35 μμ
Nα σαι καλά φιλε μου! ;)


Τίτλος: Απ: Παρτιτούρες για Μπαγλαμά Τζουρά 3χορδο μπουζούκι...
Αποστολή από: hristos στις Μάιος 01, 2010, 09:18:53 πμ
Μπράβο παιδιά εξερετική προσπάθεια γίνεται, νομίζω πως δεν υπάρχει λόγος να υπάρχει περιορισμός στα τραγούδια, οτι μπορει ο καθένας, για όλα υπαρχει ενδιαφέρον. Αν ξέρει κανείς ενα από τα παρακάτω τραγούδια και εχει την καλοσύνη ας τα ανεβάσει: <<ΕΠΙΣΤΡΟΦΗ>> από Αθην. Κομπανία και <<ΤΑ ΝΙΑΤΑ ΤΑ ΜΠΕΡΜΠΑΤΙΚΑ>> του Τσιτσάνη.


Τίτλος: Καϊξής [1] (Α. Χατζηχρήστος - Α. Χατζηχρήστος & Μ. Βαμβακάρης)
Αποστολή από: Lelis Gougounis στις Μάιος 01, 2010, 09:26:49 μμ
ΚΑΙΞΗΣ
(Ειναι απο κατι σημειωσεις που βρηκα απο το ωδειο μου, δεν το εχω ελεγξει οποτε μπορει να περιεχει λαθη. Ειναι καλο ομως πιστευω ως βαση για να ξεκινησει κανεις)

Εισαγωγή

19--15&(17)&((19))-15&(17)&((19))-15&(17)&((19))-19-15&(17)&((19))--      x2
(8 )---(7)-(10)---(3)-(5)----
12-14-12-14-11-12-11-14-12-14-12-15-14-15-14-17-15---14-17----10-12----
(5)-(7)-(8 )-(10)-7-8-9-10-12---(12)-10---(10)-8---(8 )-7----
17---10-12---10-12---(17)-(17)-15-19-15-17-15-14-15-(17)--

Λόγια
15----14---10-12---
12-14-13-14-11-12-11-14-12-14-1-15-14-15-14-17-
15--15-17-15-14-15-17-15-14-15--14--14-10-12----
(5)-(7)-(8 )-(10)-7-8-9-10-12&(13)&((15))--12--12&(13)&((15))--10--
8&(10)&((12))--8--7&(8 )&((10))--7--
(10)-(8 )-(7)-(8 )-12&(10)-10-8-7-(10)-(8 )-(7)-(5)-(7)-(8 )-(10)-7-(10)-(8 )-(7)-(8 )-(10)-7-8-10
12&(13)&((15))--12--10&(12)&((15))--10--
8&(10)&((12))--8--7&(8 )&((10))--7--15&(12)----
14&(10)--14&(10)-10&(7)-12&(8 )----12&(8 )----



www.youtube.com/watch?v=e3E6yLOZWd0


Τίτλος: Αράπ ζεϊμπέκικο (Μάρκος Βαμβακάρης, "Φράγκος")
Αποστολή από: kyuss στις Μάιος 03, 2010, 03:15:24 μμ
To eixa yposxethei..parte to vevaia me kapoia kathysterhsh!!!!!



Arap zeibekiko


-12-14-12-14-12-14-12--10--8--7--4--4--7-8-7-4-3-2-3-4-3-2-0
------------------------------------------------------------
------------------------------------------------------------

-12-14-12-14-12-14-12--10--8--7--4--4--7-8-7-4-3-2-3---3---3
--------------------------------------------------------3---3---
----------------------------------------------------------------



-7-7-7-8-10-8-7-4-4-7-8-7-4-3-2-3-4-3-2-0  }  2 fores
-----------------------------------------  }
-----------------------------------------  }


-3-3-3-3-3-3-3-3--4-3-2---0-2-3-4-3-2
-3-3-3-3-3-3-3-3-------3------------
-3-3-3-3-3-3-3-3--------------------

-3-3-3-3-3-3-3-3--4-3-2---0---0---0----
-3-3-3-3-3-3-3-3-------3----0---0------
-3-3-3-3-3-3-3-3----------------------

ayta einai ta shmeia magkes



www.youtube.com/watch?v=kVn02voVvpE


Τίτλος: Απ: Παρτιτούρες για Μπαγλαμά Τζουρά 3χορδο μπουζούκι...
Αποστολή από: kyuss στις Μάιος 03, 2010, 03:22:39 μμ
Kserw ki'alla pou dn yparxoun sto forum apla thelw xrono...o mathitis eixe ena lathaki sto telos k to diorthwsa...vasika htan lathos sth diatypwsh epeidh to eixa apothikeusei prwta se notepad k to ekana me copy/paste....sorry pantws ..twra einai komple!!!!!!!!

THNX gia ton kaiksh an k dn to exw koitaksei akoma..Pidia to kraso pinw kapoios tou Tounta an to kserei  ti na pw tha me vohthisei tromera!!!!!


Τίτλος: Απ: Παρτιτούρες για Μπαγλαμά Τζουρά 3χορδο μπουζούκι...
Αποστολή από: tzanos στις Μάιος 07, 2010, 12:43:52 πμ
καλησπέρα σας,
είμαι καινούργιος στο φόρουμ .
έχω δει όλα αυτά που έχετε ανεβάσει και έχετε κάνει πολύ καλή
δουλεία..να είστε καλά
θέλω και γώ να ανεβάσω κάποια στιγμή κάνα κομμάτι..
αλήθεια μήπως έχει κανείς τα ΑΝΕΙΠΩΤΑ του Ζερβουδάκη  ?


Τίτλος: Απ: Παρτιτούρες για Μπαγλαμά Τζουρά 3χορδο μπουζούκι...
Αποστολή από: thanos2121 στις Μάιος 07, 2010, 09:52:29 μμ
Φίλε tzanos,

δεν μπορείς να φανταστείς τι πόρτα μου άνοιξες με το "Ανείπωτα" του Ζερβουδάκη. Το έχω βγάλει ήδη και σου υπόσχομαι ότι μέχρι την κυριακή θα το έχεις. Αν ξέρεις άλλα τραγούδια σε αυτό το στυλ,πολύ θα ήθελα να με ενημερώσεις και....εδώ είμαι εγώ για να τα βγάλω και να τα ανεβάσω στο forum.


Τίτλος: Απ: Παρτιτούρες για Μπαγλαμά Τζουρά 3χορδο μπουζούκι...
Αποστολή από: Katadikos στις Μάιος 07, 2010, 10:00:17 μμ
Katarxin geia sas magkitisses kai magkes mou

molis graftika na poume gt vlepw ti treli douleia ginetai edw...(na syndramw kai egw)

tha ithela an exei kaneis na valei kamia partitoura apo tis katwthen..

o katadikos-antwnis kalyvopoulos kai mousiki-stixoi tou giovan tsaous..
i litaneia tou magka-o arxaggelos tou tsitsani..
to tsifteteli tou mpourneli
valte mou dyo kanavouries (otan pethanw thapste me)
egw magkas fainomwouna (eidika tin eisagwgi den mporw na tin vgalw kai edw pou eida sto site den vgainei swsta)

tha to ektimousa para poly an empaine toulaxiston ena ap ta parapanw tragoudia..eidika ta dyo prwta..

(episis me to pou dw kamia apantisi sto post mou na ste sigouroi oti tha apantisw analogws...me partitoures of course...lavein kai doune pou leme kai emeis oi anapodoi  ;D)

stin ygeia sas..


Τίτλος: Απ: Παρτιτούρες για Μπαγλαμά Τζουρά 3χορδο μπουζούκι...
Αποστολή από: ΘΟΔΩΡΗΣ στις Μάιος 08, 2010, 08:01:36 μμ
Γεια σας πάλι....την ''τίγρη'' την έβγαλα πιστεύω μία αξιοπρεπή μεταφορά για τρίχορδο μπουζούκι...θα την ανεβάσω συντόμως και παίζεται μαζί με κιθάρα που την πιάνει από ρε....


Τίτλος: Απ: Παρτιτούρες για Μπαγλαμά Τζουρά 3χορδο μπουζούκι...
Αποστολή από: ΜΑΚΗΣ στις Μάιος 08, 2010, 11:00:08 μμ
γεια σας προσπαθω να μπω κι εγω στο forum  και φαινεται πως τα καταφερα. σας ευχαριστω ολους μιας και εχω βγαλει 4 τραγουδια.                                                                                    προς τον atopos δεν βγαζω ακρη με την εισαγωγη
ΒΑΜΒΑΚΑΡΗΣ 4 LIFE - Ο ΜΑΡΚΟΣ ΥΠΟΥΡΓΟΣ

εισαγωγή

|7|-8-10-12-10-8-10- 10-7-8-10-8-6-7
|8|------------------  ----------------
|10|-----------------  ----------------


Τίτλος: Τ' ανείπωτα (Δημήτρης Ζερβουδάκης)
Αποστολή από: thanos2121 στις Μάιος 09, 2010, 09:56:20 πμ
Ανείπωτα

Στίχοι-Μουσική: Δημήτρης Ζερβουδάκης


Εισαγωγή


1η: 11-9-11-7---11-9-11-7---11-9-11-7-6----6-7---6-7-9--7-6----6-7-9---7-6----6-7-9---
2η: ---------------------------------------9--------------------9--------------9----------

1η: 7-9-11-12-11-9---11-9-11-12---14-12-11-9-7-9-7-6--------6-7-9
2η: -----------------------------------------------------9-7-9------

1η: 11-9-11-7---11-9-11-7---11-9-11-7-6----6-7---6-7-9--7-6----6-7-9---7-6----6-7-9---
2η: ---------------------------------------9--------------------9--------------9----------

1η: 7-9-11-12-11-9---11-9-11-12---14-12-11-9-7-9-7-6--------6-7-9-7-6-7-4
2η: -----------------------------------------------------9-7-9---------------


Κουπλέ


1η: --4-7-6-------4-----4-7-6-------4---4-6-4-9-7-6-4-6---4-6-4-7-6-4-2-4----4-6-4-7-6-4-6-4-----4-6-7
2η: 4-------7-4-7-----4-------7-4-7----------------------------------------------------------------------


Ρεφραίν

Είναι ίδιο με την εισαγωγή του τραγουδιού.Ακολουθήστε το τραγούδι....


Στίχοι (τους δανείστηκα από το stixoi.info)

Τα περασμένα καίγονται, στη λησμονιά πετάνε
Γίνονται αγιάτρευτες πληγές τις νύχτες και πονάνε
Στη λησμονιά σε πάνε…

Στάσου λιγάκι, μη μιλάς, άσε το χτύπο της καρδιάς
να πει ό,τι είναι για να πει, στο φως να γεννηθεί..
Για ένα τίποτα, μη φοβηθείς, πώς φτάσαμε στ’ανείπωτα..
Γλυκιά μου, μη χαθείς…

Και τα χαράματα σαν ’ρθει.. με μια λαχτάρα η προσμονή
Θα’ναι μι’ αλλόκοτη χαρά, θα γίνει δίψα και φωτιά..
Θα’ναι μι’αλλόκοτη χαρά…

Στάσου λιγάκι, μη μιλάς, άσε το χτύπο της καρδιάς
να πει ό,τι είναι για να πει, στο φως να γεννηθεί..
Για ένα τίποτα, μη φοβηθείς, πώς φτάσαμε στ’ανείπωτα..
Γλυκιά μου, μη χαθείς…

Στάσου λιγάκι, μη μιλάς, άσε το χτύπο της καρδιάς
να πει ό,τι είναι για να πει, στο φως να γεννηθεί..
Για ένα τίποτα, μη φοβηθείς, πώς φτάσαμε στ’ανείπωτα..
Απόψε, μη χαθείς…



www.youtube.com/watch?v=jL0QV7H7-o0


Τίτλος: Το καπηλειό (Χαΐνηδες)
Αποστολή από: thanos2121 στις Μάιος 09, 2010, 10:55:49 πμ
Το καπηλειό

Στίχοι-Μουσική: Δημήτρης Αποστολάκης

Εισαγωγή-Λόγια

1η: -------12-12--10-12-10-8-10---8-10-8--7-8-7--5-7-5--3-5-3--7-8-10-8-7-8-7-5
2η: 10-10--------------------------------------------------------------------------

1η: 10-12-13-12-12-12-10-8-12-10---8-10-8--7-8-7--5-7-5--3-5-3--7-8-10-8-7-8-7-5

Τα λόγια του τραγουδιού βασίζονται πάνω στην εισαγωγή (ακριβώς ο ίδιος τρόπος )

Στίχοι (από stixoi.info)

Ήτανε όμορφο θαρρώ
εκείνο τον παλιό καιρό
το καπηλειό μου
γιαλός, καημός και τσικουδιά
βαρμένα μέσα στην καρδιά
με τ' όνειρό μου.

Και κάθε μέρα από βραδύς
ντουγιουρντισμένος ο Βαρδής
με το λαούτο
με το κρασί του στον οντά
στον αμανέ του να κεντά
τον κόσμο τούτο.

Κι ο Σταύρος πέρα στη γωνιά
που για δυό χείλια βυσσινιά
τα σιγοπίνει
παίρνει νερό σαν τραγουδεί
'που το λαούτο του Βαρδή
τον πόνο σβήνει.

Κι ο Μύρος πιάνει το χορό
το χώμα μόνο έχει οχτρό
χρυσά παλάτια
σε κάποια θάλασσα πλατιά
θυμάται, κόκκινα φωτιά
τα δυο του μάτια.

Θυμούμαι κάθε χαραυγή
πού 'λεγα ο ήλιος να μη βγει
στην αγκαλιά σου
όνειρο βάρκα με πανιά
να σεργιανίζω το ντουνιά
με τα φιλιά σου.

Αργό το ζάλο μου, βαρύ
ήτανε ψεύτικος μπορεί
ο έρωτάς σου
ρωτώ διαβάτες στα στενά
αν είδαν μάτια καστανά
σαν τα δικά σου.

Πως να δικάσω μια ζωή
κι ένα αστέρι το πρωί
που τρεμοσβήνει
στο ερειπωμένο καπηλειό
ένα μου όνειρο παλιό
έχει 'πομείνει.



www.youtube.com/watch?v=3DcOIHkwugw


Τίτλος: Απ: Παρτιτούρες για Μπαγλαμά Τζουρά 3χορδο μπουζούκι...
Αποστολή από: kyuss στις Μάιος 09, 2010, 11:00:38 πμ
Geia sas...Re paidia to teleutaio kommati apo to pws tha perasei h vradya aas to anevasei kapoios k na sas thymisw to kraso pinw..........


Τίτλος: Απ: Παρτιτούρες για Μπαγλαμά Τζουρά 3χορδο μπουζούκι...
Αποστολή από: tzanos στις Μάιος 09, 2010, 12:45:44 μμ
φίλε thanos2122,
ευχαριστώ πολύ και για τα ανειπωτα αλλα και για το καπειλιο...
φοβερα κομμάτια και τα δύο..



Τίτλος: Σαν μαγεμένο το μυαλό μου [1] (Δημήτρης Γκόγκος, "Μπαγιαντέρας")
Αποστολή από: ΜΑΚΗΣ στις Μάιος 09, 2010, 03:49:24 μμ
ΚΙ ΑΠΟ ΜΕΝΑ ΕΝΑ ΤΟΥ ΜΠΑΓΙΑΝΤΕΡΑ

ΣΑΝ ΜΑΓΕΜΕΝΟ ΤΟ ΜΥΑΛΟ ΜΟΥ
          ΕΙΣΑΓΩΓΗ
1) 11-12--7-8-7-5-7-5-3-7-5-3--

1) 11-12--7-8-7-5-7-5-2-3-5-7----

1) 11-12-7-8-7-5-7-5-3-7-5-3--8---7-3-2-0--0
2)-----------------------------------------0
                   ΛΟΓΙΑ
1) 7-6-7-12-7-5-7-5-3-2-0-8-7    δις.          σαν μαγεμενο το μυαλο μου φτερουγιζει
γυρισμα  7-8-6-8-7-8-6-8-7                   δις.     η καθε σκεψη μου κοντα σου τριγυριζει


1) 7-6-7-15-14-12-10-8-7-5-4-7-5---   δεν ησυχαζω και στον υπνο που κοιμαμαι
      
    οοο...          
1) 8]------- 8]  -8]   -8]-7]  -5]-5]  -3]-3]  -2]-7]     εσενα παντα αρχοντοπουλα μου    
2) 10]------10]-10]  -10]-8]  -7]-7] - 5]-5]  -4]-4]                            
            πρωτη-δευτερη μαζι [διπλες]
                                                            
1) 3-2-0-------0-0                            θυμαμαι
2)-------0-1-4 -0



www.youtube.com/watch?v=w7L00C137Ng


Τίτλος: Μη μου ξαναφύγεις πια (Β. Τσιτσάνης - Πρ. Τσαουσάκης & Ρένα Ντάλλια)
Αποστολή από: ΜΑΚΗΣ στις Μάιος 09, 2010, 11:39:24 μμ
ΚΙ ΑΛΛΟ ΕΝΑ ΤΩΡΑ ΠΟΥ ΠΕΙΡΑ ΦΟΡΑ
"ΜΗΝ ΜΟΥ ΞΑΝΑΦΥΓΕΙΣ ΠΙΑ ΜΑΓΚΑ ΜΟΥ"  Β. Τ.

1η) 7-7-8-8-10-10-11-10-9-10--  το ξερα μια μερα πωσ θα ρθεις

1η) 7-8-7-8-10-11-13-11-10-9-10-- (γυρισμα)

1η) 7-7-8-8-10-10-11-10-8-7--   και τις τρελλες σου θα βαρεθεις
1η) 7-8-10-11-13-11-10-8-7-- ( γυρισμα)

1η)  8] ----7]----5]- 5]-7]-5]-3]  μην μου ξανα φυγεις πια
2η) 10] ----8]----7]-7]-8]-7]-5]

1η) 10]- 8]-7]--      μαγκα μου
2η) 12]-10]-8]--

1η) 8]----7]----5]-5]-7]-5]-3]----   μεινε μες την αγγαλια μου
2η)10]----8]----7]-7]-8]-7]-5]----



www.youtube.com/watch?v=TtVdfneH71g


Τίτλος: Απ: Παρτιτούρες για Μπαγλαμά Τζουρά 3χορδο μπουζούκι...
Αποστολή από: jojo στις Μάιος 10, 2010, 12:45:52 πμ
>> ΜΑΚΙΣ


Μπράβο φίλε Μάκη!! μας έφτιαξες απόψε!! να σαι καλά!!


Τίτλος: Απ: Παρτιτούρες για Μπαγλαμά Τζουρά 3χορδο μπουζούκι...
Αποστολή από: thanos2121 στις Μάιος 10, 2010, 07:57:28 πμ
Προς ΜΑΚΗ

Thanks φιλε για τα τραγούδια αλλά ανέβασε και την εισαγωγη απο το "μη μοτ ξαναφυγεις πια" αν σου ειναι ευκολο.Και ότι άλλο εχεις,καλο ειναι να ανεβει...


Τίτλος: Απ: Παρτιτούρες για Μπαγλαμά Τζουρά 3χορδο μπουζούκι...
Αποστολή από: kyuss στις Μάιος 10, 2010, 04:10:13 μμ
makh eisai arxontas apla anevase k thn eisagwgh otan mporeis...


Τίτλος: Το άγαλμα [1] (Μ. Πλέσσας/Λ. Παπαδόπουλος - Γιάννης Πουλόπουλος)
Αποστολή από: tzanos στις Μάιος 10, 2010, 08:49:32 μμ
καλησπέρα,
λέω να ανεβάσω ΤΟ ΑΓΑΛΜΑ του ΠΟΥΛΟΠΟΥΛΟΥ ,μιας και δε το είδα παραπάνω..
εύκολο κομμάτι και ωραίο ..

εισαγωγή:

1: 12-15-13-13-13-13-13-13-12-10-13-12,-12-15-13-12-12-12-12-12-10-8-12-10,-5---5-10
2:                                                                                                                 -6-  

κυρίως κομμάτι:

1: 5-10-8-6-5----5-,-5-6-8-6-5-(5-6-5-3-5)-5-10-8-6-5----5-,-5-6-8-6-5--------5-6-8-10)-
2:               -8-6-                                                                             -(5-6-8-

ρεφραίν:
1:-8-10-10-8-10-13-12-10-12-10-8-10-12-10-12-13-10-8-6-5-10-8-6-5---5-------5-6-8-10)-
2:                                                                                               --8--(5-6-8-

1:-8-10-10-8-10-13-12-10-12-10-8-10-12-10-12-13-10-8-6-5-10-8-6-5----
2:                                                                                              --8-6

λοιπον αυτό είναι το κομμάτι..
στις παρενθέσεις είναι τα γυρίσματα..
παίζεται μιά φορά η εισαγωγή και μια το κυρίως κομμάτι,και μετά πάλι απο την αρχή.



www.youtube.com/watch?v=vg_AY9Nx1b4


Τίτλος: Απ: Παρτιτούρες για Μπαγλαμά Τζουρά 3χορδο μπουζούκι...
Αποστολή από: thanos2121 στις Μάιος 11, 2010, 08:12:33 πμ
Λοιπόν,

σε ποιον αρέσει ο καββαδίας (σε εμένα πάρα πολύ). Αν θέλετε,πείτε μου να ανεβάσω κάποια τραγούδια που ξέρω. Είτε από Μικρούτσικο, είτε από Ξεμπαρκους


Τίτλος: Απ: Παρτιτούρες για Μπαγλαμά Τζουρά 3χορδο μπουζούκι...
Αποστολή από: hristos στις Μάιος 11, 2010, 02:19:01 μμ
Φίλε thanos2121 ανέβασε οτι θέλεις, και ο Καββαδίας καλοδεχούμενος ειναι.


Τίτλος: Απ: Παρτιτούρες για Μπαγλαμά Τζουρά 3χορδο μπουζούκι...
Αποστολή από: kyuss στις Μάιος 11, 2010, 03:49:07 μμ
Paidia kserei kaneis ton zoriko tou xatzichristou????Ela ftiakste me!!!!


Τίτλος: Απ: Παρτιτούρες για Μπαγλαμά Τζουρά 3χορδο μπουζούκι...
Αποστολή από: ΜΑΚΗΣ στις Μάιος 11, 2010, 08:45:26 μμ
Η εισαγωγή είναι το ίδιο απ όσο ξέρω...
Ο καββαδίας είναι ανεπανάληπτος και θα χαρούμε πολύ να έχουμε κάτι και από αυτόν


Τίτλος: Μοδιστρούλα (Ξανθιά μικρούλα) (Γιάννης Παπαϊωάννου, "Ψηλός")
Αποστολή από: ΜΑΚΗΣ στις Μάιος 11, 2010, 09:34:35 μμ
ΜΟΔΙΣΤΡΟΥΛΑ      Μ.Β.

εισαγωγή

1η) 5-3-5-2-5-3-5-2-5-10-9-6-5-3-2-3-5-6—
1η) 9-10-12-10-9-6-5-6-9-6-5-3-4-4-4-4-4-4-5—


1η) 5-3-5-2-5-3-5-2-5-10-9-6-5-3-2-3-5-6—
1η) 9-10-12-10-9-6-5-6-9-6-5-3-2-5-10-    9]-10]
2η)-------------------------------------------    10]-7]

   ΛΟΓΙΑ

       τις άλλες έμπλεξα κι εγώ με μια ξανθιά μικρούλα

1η) 2-2-3-5-5-9-7-5-2-3-5-7-5-9-7-5       δις
Γύρισμα 1η) 10-9-7-5

       Που έχει μάτια έξυπνα είναι και μοδιστρούλα
    
1η) 7-7-7-7-7-7-7-7-7-9-10-9-7-9-7-5
Γύρισμα 1η) 10-9-7-5

       Που έχει μάτια έξυπνα είναι και μοδιστρούλα
1η) 3-3-3-3-3-3-3-3-3-5-7-5-3-5-3-2
1η) 5-7-9-10-     9]-10]
2η)                    10]-7]



www.youtube.com/watch?v=FSGvg3lGNUw


Τίτλος: Απ: Παρτιτούρες για Μπαγλαμά Τζουρά 3χορδο μπουζούκι...
Αποστολή από: nikkortis στις Μάιος 11, 2010, 10:48:10 μμ
thanos2121 εισαι ωραιος φιλε!

Μπραβο και σε ολα τα παιδια που βαζουνε ομορφα τραγουδια και μας κανουνε να αγκαλιαζουμε τα τριχορδα οργανα μας, να ονειροπολουμε ταξιδευοντας μεσα απο τους ηχους...... ευχαριστω! και ειναι λιγο! συνεχιστε παιδες!


Τίτλος: Απ: Παρτιτούρες για Μπαγλαμά Τζουρά 3χορδο μπουζούκι...
Αποστολή από: thanos2121 στις Μάιος 12, 2010, 07:34:03 πμ
Δύο τραγούδια θα ανεβάσω...

Το πρώτο είναι η Θεσσαλονίκη ΙΙ

www.youtube.com/watch?v=19BrK-396Ho


και το δεύτερο είναι η Εσμεράλδα

www.youtube.com/watch?v=b0I9KG4yuis


Ειναι από τα πιο αγαπημένα μου τραγούδια και τα δύο πιο μελωδικά που έχω ακούσει ποτέ. Σας έδωσα και τα link για να τα ακούσετε μέχρι να τα ανεβάσω...


Τίτλος: Απ: Παρτιτούρες για Μπαγλαμά Τζουρά 3χορδο μπουζούκι...
Αποστολή από: tzanos στις Μάιος 13, 2010, 12:44:31 πμ
Έχω και εγώ δύο επιθυμίες σε στιλ ΜΙΚΡΟΥΤΣΙΚΟΣ-ΚΡΑΟΥΝΑΚΗΣ ..
Δεν ξέρω αν είναι δυνατόν να έχουμε το ΕΡΩΤΙΚΟ (ΠΥΡΩΓΑ) του μικρουτσικου
και τι ΑΥΤΗ Η ΝΥΧΤΑ ΜΕΝΕΙ του κραουνάκη ...

Δε ξέρω,  φίλε  thanos 2121  ,βάζω δύσκολα  ??


Τίτλος: Απ: Παρτιτούρες για Μπαγλαμά Τζουρά 3χορδο μπουζούκι...
Αποστολή από: hristos στις Μάιος 13, 2010, 06:27:27 πμ
Aν μπορεί κάποιος ας ανεβάσει την εισαγωγή από το << ΜΗ ΜΟΥ ΞΑΝΑΦΥΓΕΙΣ ΠΙΑ ΜΑΓΚΑ ΜΟΥ>>


Τίτλος: Απ: Παρτιτούρες για Μπαγλαμά Τζουρά 3χορδο μπουζούκι...
Αποστολή από: kyuss στις Μάιος 13, 2010, 11:24:24 πμ
Eisagwgh tou mh mou ksanafygeis pia!!!!!!

-3--5--7-8-8-8-8-8-8-7-7-7-7-7-7-7--5-5-5--3--2--0---10--8--7-
------------------------------------------------------------------
------------------------------------------------------------------

Auto paizei k meta ta refrain 2 fores gia na ksanampei kouple!!!!


Τίτλος: Απ: Παρτιτούρες για Μπαγλαμά Τζουρά 3χορδο μπουζούκι...
Αποστολή από: thanos2121 στις Μάιος 14, 2010, 03:29:50 μμ
Τι έγινε μάγκες?
Έβγαλε η Ντούβλη το dvd και χαθήκατε όλοι. Όταν έλεγα "πιάστε τα όργανα" εννοούσα τα μπουζούκια και τους μπαγλαμάδες, όχι τα ...... σας. Τέλος πάντων. Μέσα στο σαβ/κο θα ανεβάσω τα δύο τραγούδια του καββαδία που σας έχω τάξει και θα ακολουθήσουν δύο ρεμπέτικα την επόμενη εβδομάδα,το "Μες του βάβουλα τη γούβα" και ο "μπουφετζής". Όσο για τον φίλο που ζήτησε το "ερωτικό" και το "αυτή η νύχτα μένει", ελπίζω ότι μπορεί να περιμένει λίγο. Το ερωτικό το έχουμε,το άλλο λίγο δύσκολο. Καλό σαβ/κο μάγκες και τα ξαναλέμε με τις αναρτήσεις μας...

Αυτός που είπε ότι έβγαλε την τίγρη,που χάθηκε? Περιμένω...


Τίτλος: Απ: Παρτιτούρες για Μπαγλαμά Τζουρά 3χορδο μπουζούκι...
Αποστολή από: antonisp στις Μάιος 14, 2010, 05:51:32 μμ
παιδιά ανακάλυψα πρόσφατα τα post σας και ευχαριστώ κι εγώ για τη φοβερή δουλειά που κάνετε!!!
Άν κανείς από τους πιο έμπειρους μπορεί να ανεβάσει οτιδήποτε από Χειμερινούς Κολυμβητές θα σας ήμουν ευγνώμον (είμαι ήδη δηλαδή αλλά λέμε...) :D
αντώνης (τζουρας player wannabe)


Τίτλος: Απ: Παρτιτούρες για Μπαγλαμά Τζουρά 3χορδο μπουζούκι...
Αποστολή από: Petros Tsalimos στις Μάιος 15, 2010, 01:42:39 πμ
Παιδια συγχαρητηρια και ενα μεγαλο μπραβο σε ολους σας!!!Ειμαι καοινουργιος και χαιρομαι που ανακαλυψα αυτο το θεμα!!Θα ηθελα εαν γινετε να ανεβασει καποιως την ταμπλατουρα του μεγαλου Μιχαλη Γενιτσαρη του μπαρμπα "Εγω μαγκας φαινομουνα".Το παλευω πολυ καιρο το τραγουδι αλλα καπου εχω κολλησει και για τα καλα μαλιστα!!


Τίτλος: Απ: Παρτιτούρες για Μπαγλαμά Τζουρά 3χορδο μπουζούκι...
Αποστολή από: marKiS στις Μάιος 15, 2010, 11:46:47 πμ
Παιδιά συγχαρητήρια συνεχίστε  έτσι .μια παράκληση  για 2 τραγούδια –το πλαστό το πασαπόρτι και στου χαροκόπου και στην Καλλιθέα   


Τίτλος: Θεσσαλονίκη ΙΙ (Νίκος Καββαδίας - Ξέμπαρκοι)
Αποστολή από: thanos2121 στις Μάιος 15, 2010, 06:29:47 μμ
Λοιπόν,έχουμε και λέμε...
Το παρακάτω τραγούδι είναι ποίημα του Νίκου Καββαδία και μελωποιήθηκε από τους Ξέμπαρκους (δεν υπάρχουν πολλές πληροφορίες για αυτούς). Μπορείται να το βρείτε στο youtube στο παρακάτω link:

www.youtube.com/watch?v=L6fOGRSVAbM

Η ταμπλατούρα που ανεβάζω είναι βασισμένη σε αυτήν την εκτέλεση. Μπορεί να παιχτεί και με κιθάρα (με τις απαραίτητες αλλαγές βεβαίως βεβαίως) για όποιον φίλο νομίζει ότι δεν ταιριάζει σε μπουζούκι,τζουρά,μπαγλαμά αυτό το τραγούδι.Εγώ το έβγαλα γιατί είναι αδυναμία μου...

Θεσσαλονίκη ΙΙ

Ποίηση: Νίκος Καββαδίας
Μουσική: Ξέμπαρκοι

Εισαγωγή

1η: 7-9-10---12-10-12-10-9----5-9-10---10-12-14-17-12---5-10-9-7-

Λόγια

1η: 7-7-7-7-5-7-9-10---9-9-9-9-10-9-7----7-7-7-7-5-7-9-10---9-9-9-5-10-9-7-


1η: 7-9-10----12-12-12-10-14-12-10---9-9-9-----10-9-7---12-12-12-10-14-12-10---9-9-9-10-9-7
2η: ------------------------------------------10-------------------------------------------------


1η: 7--10--14--10--7--5--5--9--12

Μετά την τελευταία γραμμή της ταμπλατούρας ξαναπαίζει τους στίχους από την αρχή και μετά πάει πάλι η εισαγωγή. Καλό παίξιμο....


Τίτλος: Εσμεράλδα (Θάνος Μικρούτσικος/Νίκος Καββαδίας - Γιάννης Κούτρας)
Αποστολή από: thanos2121 στις Μάιος 15, 2010, 06:36:37 μμ
Η Εσμεράλδα είναι ένα ακόμη ποίημα που γράφτηκε από τον Καββαδία και μελωποιήθηκε από τον Θάνο Μικρούτσικο στο δίσκο "Ο Σταυρός του Νότου". Τραγουδάει ο Γιάννης Κούτρας. Η ταμπλατούρα που ανεβάζω βασίζεται στην πρώτη εκτέλεση του τραγουδιού που μπορείτε να βρείτε στην παρακάτω διεύθυνση:

www.youtube.com/watch?v=NHxyeQBxjT0

Εσμεράλδα

Ποίηση: Νίκος Καββαδίας
Μουσική: Θάνος Μικρούτσικος

Λόγια

1η: --------7--10--9-7------------7-9-7------7-12-10-12-14-9-7-------------7-9-7
2η: 7-9-10-------------10-7-9-10--------5------------------------10-7-9-10-------

1η: 12-10-7-12-7-9-7-------------7-9-7------7-9-10-9-7-9-7-5-9-7----------------
2η: -------------------10-7-9-10---------5-------------------------10-9-5-7-------



Τίτλος: Απ: Παρτιτούρες για Μπαγλαμά Τζουρά 3χορδο μπουζούκι...
Αποστολή από: ΜΑΚΗΣ στις Μάιος 15, 2010, 08:11:41 μμ
ΠΡΟΣ Petros Tsalimos φιλε δες στην σελιδα 19


Τίτλος: Φαληριώτισσα (Γιάννης Παπαϊωάννου, "Ψηλός")
Αποστολή από: ΜΑΚΗΣ στις Μάιος 15, 2010, 08:51:33 μμ
ΦΑΛΙΡΙΟΤΙΣΑ απο ΠΑΠΑΙΩΑΝΝΟΥ

                  εισαγωγη
1η) 2-3-4-5--5-4-5-7--7-5-4-5--5-4-3-2--

1η) 2-3-4-5--5-4-5-7--7-5-4-5--10]-10]-10]-10]
2η)------------------------------ 7]-  7] -7] -7]

1η) 2-3-4-5--5-4-5-7--7-5-4-5--5-4-3-2--9-9-9-9-  7-  5-  3-  2]-9]-10]
2η)-----------------------------------------------10- 8- 7- 5- 3]-10]-7]
                            
                           λογια
1η)14-14-14-12-12-10-10-9--   σουρωμενος θα ρθω παλι
1η)10-7-9-9-10-7-5--        στην παλια μας γειτονια
γυρισμα 1η) 2-3-4-5
                          λογια
1η)9-10-12-12-12-10-10-9--     να σου πεξω μπουζουκακι
1η)10-7-5-5-7-3-2               με γλυκια διπλοπενια            
γυρισμα 1η) 5-4-3-2
                         λογια
1η) 9-10-12-12-12-10-10-9--   να σου πεξω μπουζουκακι
1η)10-7-9-9-10-7-5             με γλυκια διπλοπενια
γυρισμα 1η) 2-3-4-5
                              λογια
1η)9-10-12-12-12-10-10-9--  σουρωμενος θα ρθω παλυ
1η)10-7-5-5-7-3-2-9]-10]        στην παλια μας γειτονια
2η)----------------10]-7]


ΖΟΡΙΚΟ!!!! ΕΤΣΙ?



www.youtube.com/watch?v=GqRoSEZ9xMI


Τίτλος: Ατσιγγάνα [1] (Γιώργος Μπάτης, "Αμπάτης")
Αποστολή από: BOB DYLAN στις Μάιος 16, 2010, 11:12:04 μμ
Καλησπερα σε όλους  Ενα κοματι πολυ καλο για τζουρα και μπαγλαμα  η Ατσιγκανα του Μπατη
0 1 1 1 0 1 1 1 0 1 1 1 0 7 7 7   (δις)
λογια
7 7 7 7 8 5 7 7 (δις)  ατσιγκανα με φωναζουν
5 5 5 5 4 1 0 7 7  ατσιγκανα με φωναζουν
5 5 5 5 4 1 0 0 0 γυφτοπουλα μ ονομαζουν

ολα στην 1 χορδη και οι υπόλοιπες ανοιχτες



www.youtube.com/watch?v=l2ALJlYygb0


Τίτλος: Απ: Παρτιτούρες για Μπαγλαμά Τζουρά 3χορδο μπουζούκι...
Αποστολή από: tom13 στις Μάιος 17, 2010, 01:06:46 πμ
geia kai xara se olous , xarika para poli pou mporesa kai vrika kai allous poromenous me to mpouzouki. asxoloume peri ta 6 xronia kai synixizo akathektos! elpizo na mporeso na fano xrisimos stin parea afoy exo perasei arketa komatia mexri tora. kai tora ena request tin ¨ PEIRAIOTISSA ¨ toy mparmpagianni se tamplatoura. efxaristo kai opoios thelei kapoio komati as to zitisi kai an to gnorizo tha to peraso amesos.kalos sas vrika


Τίτλος: Απ: Παρτιτούρες για Μπαγλαμά Τζουρά 3χορδο μπουζούκι...
Αποστολή από: alexandros papageorgiou στις Μάιος 17, 2010, 01:39:26 πμ
ΚΑΛΩΣΗΡΘΕΣ ΦΙΛΕ ΤΟΜ
ΜΗΠΩΣ ΞΕΡΕΙΣ ΤΟ ΑΘΗΝΑΙΙΣΑ ΤΟΥ ΑΝΕΣΤΗ ΔΕΛΙΑ ?
ΚΟΜΜΑΤΑΡΑ ΜΑΓΚΕΣ


Τίτλος: Απ: Παρτιτούρες για Μπαγλαμά Τζουρά 3χορδο μπουζούκι...
Αποστολή από: nikkortis στις Μάιος 17, 2010, 05:11:41 μμ
geia kai xara se olous , xarika para poli pou mporesa kai vrika kai allous poromenous me to mpouzouki. asxoloume peri ta 6 xronia kai synixizo akathektos! elpizo na mporeso na fano xrisimos stin parea afoy exo perasei arketa komatia mexri tora. kai tora ena request tin ¨ PEIRAIOTISSA ¨ toy mparmpagianni se tamplatoura. efxaristo kai opoios thelei kapoio komati as to zitisi kai an to gnorizo tha to peraso amesos.kalos sas vrika

βαλε οτι εχεις ή οτι θελεις... εμεις απλα περιμενουμε τραγουδια και αμα υπαρχει παραγγελια την δινουμε για extra τραγουδακια


Τίτλος: Ο Μάρκος πολυτεχνίτης (Μ. Βαμβακάρης - Μ. Βαμβακάρης & Σ. Καρίβαλη)
Αποστολή από: *MadmaX* στις Μάιος 17, 2010, 06:10:38 μμ
Ο Μάρκος Πολυτεχνίτης (1940)
Μάρκος Βαμβακάρης- Σοφία Καρύβαλη

Εισαγωγή

---------------4-5-4-4----------4-5
-3-3-5-6-6------------6-5-3-5-6----
------------------------------------

---------------4-5-4-4----------------------
-3-3-5-6-6-------------6-5-3---3---3------
----------------------------------5----5----

Φωνή

-7-8-7-5-4-5-4----4-5-4--------------4-5
----------------6----------6-5-3-5-6-----
------------------------------------------

-7-8-7-5-4-5-4----4-5-4------------------
-----------------6-------6-5-3-----3---3-
---------------------------------5---5----

Ενα κομμάτι Του Μάρκου, που μ΄αρέσει πάρα πολύ. Οι νότες στο τραγούδι, επαναλαμβάνονται. Μπορώ να ανεβάσω και τη "Σουλτάνα Μαυροφόρα" των Μαρκου-Χ"χρήστου, αν ενδιαφέρεται κάποιος. Πάμε γερά!!!



www.youtube.com/watch?v=Ye1W8au1NVc


Τίτλος: Απ: Παρτιτούρες για Μπαγλαμά Τζουρά 3χορδο μπουζούκι...
Αποστολή από: alexandros papageorgiou στις Μάιος 17, 2010, 07:05:12 μμ
ΩΡΑΙΟΣ ΦΙΛΕ ΜΑΚΗ
ΑΝΕΒΑΣΕ ΤΗ ΣΟΥΛΤΑΝΑ ΕΙΝΑΙ ΤΡΑΓΟΥΔΑΡΑ!
ΕΥΧΑΡΙΣΤΟΥΜΕ ΦΙΛΑΡΑΚΟ


Τίτλος: Απ: Παρτιτούρες για Μπαγλαμά Τζουρά 3χορδο μπουζούκι...
Αποστολή από: philipas στις Μάιος 17, 2010, 09:16:04 μμ
ΚΑΛΗΣΠΕΡΑ ΣΤΟΥΣ ΜΑΓΚΕΣ!!!
ΕΧΕΤΕ ΔΩΣΕΙ ΡΕΣΤΑ ΠΑΙΔΙΑ ΣΥΝΕΧΙΣΤΕ ΕΤΣΙ ΝΑ ΜΑΘΟΥΜΕ  ΚΑΙ ΕΜΕΙΣ ΟΙ ΣΤΡΑΒΩΓΙΑΝΝΟΙ ΤΙΠΟΤΑ!!!


Τίτλος: Απ: Παρτιτούρες για Μπαγλαμά Τζουρά 3χορδο μπουζούκι...
Αποστολή από: tom13 στις Μάιος 17, 2010, 09:17:19 μμ
file alexandre to ¨athinaiisa¨ tou delia den to exo perasei , tha prospathiso omos na vro ligo xrono kai na to kano, an theleis gia tora to ¨athinaiisa¨ tou tsitsani ok. gia tin ora anevazo to ¨ me paresire to rema - eisagogi ¨ , (sorry prokatavolika gia tixon lathi stin eggrafi einai i proti fora) an sas aresei vazo kai ta logia.

eisagogi

1h  0---5---4--5---7------5---8------7---5---3------1------5------0

1h 5--7--8--5--7--8--5--7--8--10--9--10--9--10

1h-----7--7-------7--7-------------7--8--7--8--7--8
2h 8----------8----------8--10----------------------

1h ---5--5-----5--5-----5---8--7--8--7--8
2h 6--------6--------6--------------------

1h ------------5--5--5--5----------------------------
2h 6--6--6--6-------------6--6--5--3--5--5--5--5--5

1h 12--12--12--12--8--8--8--8--5--5---5----5---5--
2h -----------------------------------8---6----5---5


Τίτλος: Σουλτάνα μαυροφόρα (Μ. Βαμβακάρης - Απ. Χατζηχρήστος & Μ. Βαμβακάρης)
Αποστολή από: *MadmaX* στις Μάιος 18, 2010, 04:29:35 μμ
Σουλτάνα Μαυροφόρα
Μ. Βαμβακάρης – Απ. Χατζηχρήστος
Εισαγωγή
-7--8-8—10—11-11-10-8-7------8-7------------------------------7--------------------
-----------------------------9---------9-8-7-5---7-5-3-5-7-8-9------9-8-7-8—8-8-8-8
---------------------------------------------------------------------------------------

-7--8-8—10—11-11-10-8-7------8-7------------------------------7--------------------
-----------------------------9---------9-8-7-5---7-5-3-5-7-8-9------9-8-7-5—5-5-5-5
---------------------------------------------------------------------------------------
Φωνή
------------------7------------------                   ------------------7-------------------      
-3-5-7-8--8-8-9----9-8-7-8—8-8-8-8                   -3-5-7-8--8-8-9-----9-8-7-8—8-8-8-8
---------------------------------------                --------------------------------------

-----------------------------------------------     ----------------------------------------------
-9-8-7-5—3-5-7-8-9-8-7-8—8-8-8-8-                   -9-8-7-5—3-5-7-8-9-8-7-5—5-5-5-5-
-----------------------------------------------     --------------------------------------------- -

Τη δεύτερη φορά, επειδή η φωνή ανεβαίνει, μπορεί να παιχτεί κι έτσι:

----------------------7--------------------               --------------------------------------------
-9-8-7-5—3-5-7-8-9----8-7-8—8-8-8-8-                   -9-8-7-5—3-5-7-8-9-8-7-5—5-5-5-5--
------------------------------------------------        ------------------------------------------------



www.youtube.com/watch?v=MYH9P-hLCvg


Τίτλος: Απ: Παρτιτούρες για Μπαγλαμά Τζουρά 3χορδο μπουζούκι...
Αποστολή από: matzore στις Μάιος 18, 2010, 07:14:52 μμ
mipos exei kapios to
EIME TIS GERAKINAS GIOS
EUXARISTO


Τίτλος: Απ: Παρτιτούρες για Μπαγλαμά Τζουρά 3χορδο μπουζούκι...
Αποστολή από: georgeee στις Μάιος 18, 2010, 09:22:09 μμ
re mages kapios an mporei na valei apo Marko "tha spasei to mpouzouki mou" , thn "politissa" και το "τουτοι μπατσοι" συγκεκριμενα αυτο http://www.youtube.com/watch?v=1KsyrTmWfGo ευχαριστω να εισται ολοι καλα...


Τίτλος: Ήταν πέντε ήταν έξι (Σταύρος Κουγιουμτζής - Γιώργος Νταλάρας)
Αποστολή από: marKiS στις Μάιος 19, 2010, 11:56:53 πμ
Ηταν πεντε ηταν εξι   του Κουγιουμτζη  (ειναι για 8χορδο αλλα 2 νοτες ειναι μονο στin fa)

ΕΙΣΑΓΩΓΗ ..7-8-7-5  7-8-7-5   7-12-10-12  10-12-10-8   8-10-8-7    8-10-8-7    8-14-12-14  12-14-12-11  11-12-11-8   8-11-8-7  787……7   (8)-(7) 3,,,,,2   0…..0…..0      2-3-(10)

λόγια…………………………………………………………………………………….............................................................................7-7-7-5  (8)-(8)-(8) –(7)  5-5-5-((7))--((5…))- -5-5-5-(8)  7-7-7-5  (4)-(7)-5-8  7……7   7-7-7-(10)   (8)-(8)-(8)-(7)  (5)–(5)-5-7   8….7-5    (8)……(7)-(5)  (0)----(8)-(7)   (5)…..(5)…….(5)

7-8-7-5  7-8-7-5   7-12-10-12  10-12-10-8   8-10-8-7    8-10-8-7                                                                    8-14-12-14  12-14-12-11  11-12-11-8   8-11-8-7   787……7   (8)-(7)                                          3,,,,,2   0…..0…..0      2-3-(10)

λόγια…………………………………………………………………………………….7-7-7-5  (8)-(8)-(8) –(7)  5-5-5-((7))--((5…))- -5-5-5-(8)  7-7-7-5  (4)-(7)-5-8                                 7……7   7-7-7-(10)   (8)-(8)-(8)-(7)  (5)–(5)-5-7   8….7-5                                                   (8)……(7)-(5)  (0)----(8)-(7)   (5)…..(5)…….(5)



www.youtube.com/watch?v=pB3HolfMjpE


Τίτλος: Εγώ μάγκας φαινόμουνα [2] (Μιχάλης Γενίτσαρης)
Αποστολή από: alexandros papageorgiou στις Μάιος 19, 2010, 04:18:32 μμ
ΕΓΩ ΜΑΓΚΑΣ ΦΑΙΝΟΜΟΥΝΑ

ΕΙΣΑΓΩΓΗ: 2 φορές!!
0--1--3--5--3--5--0---0--1--3--5--3--5--3--5--7--7--5--3--1--0--0--1--3--5--7
0----------------------0---------------------------------------------------------
0----------------------0---------------------------------------------------------


0--1--3--5--3--5--0---0--1--3--5--3--5--3--5--7--7--5--3--1--0--0--1--3--1--0-----0
0----------------------0----------------------------------------------------------3----
0----------------------0---------------------------------------------------------------


ΛΟΓΙΑ:
5--7--8--9--10--12--7--8--5--7--3--5--1--0--0--1--3--5--7
------------------------------------------------------------
------------------------------------------------------------
Εγώ μάγκας φαινόμουνα να γίνω από μικρά-α-α-α-ακι


5--7--8--9--10--12--7--8--5--7--3--5--1--0--0--1--3--1--0------0
---------------------------------------------------------------3----
--------------------------------------------------------------------
Κατάλαβα τα έξυπνα και έμαθα μπουζουκά-α-α-α-α-ακι


5--7--8--9--10--12--7--8--5--7--3--5--1--0--0--1--3--5--7
------------------------------------------------------------
------------------------------------------------------------
Κατάλαβα τα έξυπνα και έμαθα μπουζουκά-α-α-α-α-ακι


5--7--8--9--10--12--7--8--5--7--3--5--1--0--0--1--3--1--0------0
---------------------------------------------------------------3----
--------------------------------------------------------------------
Εγώ μάγκας φαινόμουνα να γίνω από μικρά-α-α-α-ακι



www.youtube.com/watch?v=BSDUK3zq5gk


Τίτλος: Τούτοι οι μπάτσοι που 'ρθαν τώρα [2] (Γιάννης Ιωαννίδης)
Αποστολή από: alexandros papageorgiou στις Μάιος 19, 2010, 04:44:21 μμ
ΟΙ ΜΠΑΤΣΟΙ

ΕΙΣΑΓΩΓΗ:
10--9--12--10--9--12--10--9--10--12--7--7
--------------------------------------------                  2 ΦΟΡΕΣ
--------------------------------------------


3--5--7--3--5--7--3--1--0--0--7--7
-----------------------------------
-----------------------------------


3--5--7--3--5--7--3--1--0--0--0--0
------------------------------------
------------------------------------


ΛΟΓΙΑ:
10--9--10--9--10--------9--10--9--10--10--12--7--7
-----------------------------------------------------
-----------------------------------------------------
ΠΩ ΠΩ ΠΩ ΠΩ ΠΩ           ΠΩ ΠΩ ΤΑ ΜΑΣΤΟΥΡΙΑ


10--9--12--10--9--12--10--9--10--12--7--7
--------------------------------------------                
--------------------------------------------


3--5--7--3--5--7--3--1--0--0--7--7
-----------------------------------
-----------------------------------


3--5--7--3--5--7--3--1--0--0--0--0
------------------------------------
------------------------------------



10--9--12--10--9--12--10--9--10--12--7--7
--------------------------------------------            2 ΦΟΡΕΣ    
--------------------------------------------
ΤΟΥΤΟΙ ΟΙ ΜΠΑΤΣΟΙ ΠΟΥ ΡΘΑΝ ΤΩΡΑ


3--5--7--3--5--7--3--1--0--0--7--7
-----------------------------------
-----------------------------------
ΤΟΥΤΟΙ ΟΙ ΜΠΑΤΣΟΙ ΠΟΥ ΡΘΑΝ ΤΩΡΑ


3--5--7--3--5--7--3--1--0--0--0--0
------------------------------------
------------------------------------
ΤΙ ΓΥΡΕΥΟΥΝ ΤΕΤΟΙΑ ΩΡΑ

ΤΟ ΕΧΩ ΒΓΑΛΕΙ ΑΠΟ ΑΥΤΟ ΤΟ ΒΙΝΤΕΟ ΔΕΙΤΕ ΤΟ Κ ΕΣΕΙΣ ΓΙΑΤΙ ΣΙΓΟΥΡΑ ΔΕΝ ΤΟ ΧΩ ΒΓΑΛΕΙ ΟΛΟΣΩΣΤΟ



www.youtube.com/watch?v=8atsham7R90


Τίτλος: Απ: Παρτιτούρες για Μπαγλαμά Τζουρά 3χορδο μπουζούκι...
Αποστολή από: alexandros papageorgiou στις Μάιος 19, 2010, 04:48:41 μμ
ΦΙΛΕ ΤΟΜ13 ΑΠΟ ΟΤΙ ΚΑΤΑΛΑΒΑ ΞΕΡΕΙΣ ΤΟΥ ΔΕΛΙΑ ΤΗΝ ΑΘΗΝΑΙΙΣΑ,ΘΑ ΣΕ ΠΑΡΑΚΑΛΕΣΩ ΟΤΑΝ ΚΑΙ ΑΝ ΜΠΟΡΕΣΕΙΣ ΝΑ ΤΟ ΑΝΕΒΑΣΕΙΣ ΘΑ ΣΟΥ ΕΙΜΑΙ ΠΟΛΥ ΕΥΓΝΩΜΩΝ.
ΠΑΜΕ ΓΕΡΑ ΡΕ ΜΑΓΚΕΣ ΝΑ ΓΟΥΣΤΑΡΟΥΜΕ



Τίτλος: Απ: Παρτιτούρες για Μπαγλαμά Τζουρά 3χορδο μπουζούκι...
Αποστολή από: matzore στις Μάιος 19, 2010, 10:09:39 μμ
BRAVO KALI DOULIA


Τίτλος: Δεν παύει πια το στόμα σου (Μ. Βαμβακάρης - Μ. Βαμβακάρης & Κ. Θεσσαλονικιά)
Αποστολή από: Katadikos στις Μάιος 19, 2010, 11:35:02 μμ
loipon magkes epeidi ena palikari ksigithike wraia kai evale ena tragoudi pou zitisa parte kai ena apo mena pou vgala prosfata..


ΔΕΝ ΠΑΥΕΙ ΠΙΑ ΤΟ ΣΤΟΜΑ ΣΟΥ - ΜΑΡΚΟΣ BΑΜΒΑΚΑΡΗΣ 1936

www.youtube.com/watch?v=jNPf7l0odxw

-0-3-2-3-7-4-4-3-4-7-3-3-2---2-3-3-----0-3-2-3-7-4-4-3-4-7-3-3-2--2-0---0----
-0----------0-0-------0-0---3---0-0-----0----------0-0-------0-0---3----0---0-- eisagwgi
--------------------------------------------------------------------------------


Δε-----με ---κό--βεις-μά----γκα μου-βρε πια--με----τα--λι-μά--σου,
-12----10----12---8-----7------8-----7----5----7----5-----3---5---7----7---
-----------------------------------------------------------------------------------

δεν περνάει αλάνη μου, βρε πια, για με η μπογιά σου,                    (antistoixa me ton prwto)
-12----10----12---8-----7------8-----7----5----7----5-----3---5---7----7---
-----------------------------------------------------------------------------------
-----------------------------------------------------------------------------------

τ' ανθίστηκα, βρε μόρτη, τη βιόλα που βαράς,          το ξέρω, βρε τσαχπίνη μου, πως πάντα με γελάς.
-0-3-2-3-4-7-4-7-4-3-4-3-2-7---------------------------------0-3-2-3-4-7-4-7-4-3-4-3-2-0-----0----0
--------------------------------------------------------------------------------------------------0----0---
------------------------------------------------------------------------------------------------------------
 (paizetai 2 fores to teleutaio)

kai ksana olo ap tin arxi..

pisteuw na katalavate..

gia tyxon apories rwtiste kai tha voithisw oso mporw  ;)


Τίτλος: Ο δερβίσης (Μάρκος Βαμβακάρης, "Φράγκος")
Αποστολή από: alexandros papageorgiou στις Μάιος 20, 2010, 06:25:52 μμ
Ο ΔΕΡΒΙΣΗΣ-ΒΑΜΒΑΚΑΡΗΣ

ΕΙΣΑΓΩΓΗ:
6--7----12--10--9--7--6--7--9--10--12--10--9--6--7--7--7--7
---------0---------------------------0------------------------
---------0---------------------------0------------------------


7----12--10--9--7--6--7--9--10--12--10--9--6--7--7--7--7
------0---------------------------0------------------------
------0---------------------------0------------------------


0--4--4--3--0--3--4--5--4--7--5--4--5--7--0--7--0--7--0
---0------------0-----------------------------------------
---0------------0-----------------------------------------


0--4--4--3--0--3--4--5--4--7--5--4--3--0---0---0
---0------------0--------------------------0---0--
---0------------0---------------------------------


ΛΟΓΙΑ:
7----12--10--9--7--6--7--9--10--12--10--9--6--7--7--7--7
------0---------------------------0------------------------     2 ΦΟΡΕΣ
------0---------------------------0------------------------
ΔΕΡΒΙΣΗ ΜΟΥ ΝΑ ΡΧΟΣΟΥΝΑ ΜΙΑ ΩΡΑ ΣΤΟ ΤΣΑΡΔΙ ΜΑΣ


0--4--4--3--0--3--4--5--4--7--5--4--5--7--7--7--7--7--7
---0------------0-----------------------------------------
---0------------0-----------------------------------------
ΘΑ ΒΡΙΣΚΕΣ ΤΟΥΣ ΦΙΛΟΥΣ ΜΑΣ ΠΟΥ ΝΑΙ ΟΛΟΙ ΔΙΚΟΙ ΜΑΣ


0--4--4--3--0--3--4--5--4--7--5--4--3--0--0--0--0--0--0
---0------------0----------------------------------------
---0------------0----------------------------------------
ΚΑΙ ΘΑ ΒΛΕΠΕΣ ΤΟΥΣ ΦΙΛΟΥΣ ΜΑΣ ΠΟΥ ΝΑΙ ΟΛΟΙ ΔΙΚΟΙ ΜΑΣ

ΔΕΙΤΕ ΑΥΤΟ ΓΙΑ ΝΑ ΤΟ ΑΚΟΥΣΕΤΕ

www.youtube.com/watch?v=ean9kFR49OQ


Τίτλος: Απ: Παρτιτούρες για Μπαγλαμά Τζουρά 3χορδο μπουζούκι...
Αποστολή από: nikkortis στις Μάιος 20, 2010, 09:28:49 μμ
alexandros papageorgiou μπηκες πολυ δυνατα!!! αλααααααα


εαν μπορει να βρεις καποιος τους στιχους απο το ΔΕΡΒΙΣΗ μιας και δεν του βρισκω και οταν παω να τους ακουσω δεν μπορω να τους καταλαβω καλα  ;D


Τίτλος: Απ: Παρτιτούρες για Μπαγλαμά Τζουρά 3χορδο μπουζούκι...
Αποστολή από: ΜΑΚΗΣ στις Μάιος 20, 2010, 10:45:03 μμ
Ο Δερβίσης

Βαμβακάρης Μάρκος

Μουσική/Στίχοι: Βαμβακάρης Μάρκος
   
Αποστολέας: 1961
Στάλθηκε: 16-05-2004
(17 ψήφοι)
 
Ντερβίση μου να 'ρχόσουνα μια ώρα στο τσαρδί μας   ] 2x
Να 'βρισκες τους φίλους μας που είν' όλοι δικοί μας
και θα 'βλεπες τους φίλους μας που 'ναι όλοι δικοί μας
 
Πενιά φοράτη θ' άκουγες με φίνους μπαγλαμάδες   ] 2x
Τσιμπούκια που θα πίνουμε, να τρίζουν οι λουλάδες   ] 2x
 
Μπουζούκι που θα παίζουμε, με ανοιχτό ντουζένι   ] 2x
Τη βόλτα που θα έφερνες κι εσύ καραντουζένι   ] 2x
 
Κέφι λοιπόν θα κάνουμε κι εσύ καλός ντερβίσης   ] 2x
Μόνο ο χάρος ο σκληρός, αυτός θα μας χωρίσει   ] 2x
 
Μα 'γώ δεν είμαι ποιητής τραγούδια να ταιριάζω   ] 2x
και μου τα φέρνει ο αργιλές και τα κατασκευάζω   ] 2x
 


Τίτλος: Απ: Παρτιτούρες για Μπαγλαμά Τζουρά 3χορδο μπουζούκι...
Αποστολή από: matzore στις Μάιος 21, 2010, 09:34:28 πμ
o alexandros oxi mono mpike dinata ALLA KAI POLI SOSTA
tha perimenoume kai ala
mipos exei kapios???
pouse kaimena kawoura
kai to 13 to keli
kalisas mera kai gia osous ksenixtisan kalo ypno


Τίτλος: Κάθε βράδυ θα σε περιμένω (Μάρκος Βαμβακάρης, "Φράγκος")
Αποστολή από: ΜΑΚΗΣ στις Μάιος 21, 2010, 11:54:18 μμ
ΚΑΘΕ ΒΡΑΔΥ ΘΑ ΣΕ ΠΕΡΙΜΕΝΩ
Μ.Β.
εισαγωγή
1η)2]-7-8-9-10-12-10-13-12-12-10-10-9-10-9-8-7
2η)3]
3) 5]

1η)7-8-9-10-12-10-13-12-12-10-10-9-15]-15]-15]-15]
2η)-----------------------------------12]-12]-12]-12]

1η)7-8-9-10-12-10-13-12-12-10-10-9-10-9-8-7

1η)7/8/7/5/7/5/3/5/3/2/3/2-0---0 (πάνε γρήγορα)
2η)--------------------------0-0
3η)----------------------------0

Λόγια         κάθε βράδυ θα σε περιμένω
1η)0-2-3-5-7-7-7-7-7-5-3-5-8-7
               1η)6-7-
                2η)---8        δις
            
    Κι όπου θες εγώ θα σε πηγαίνω
1η)6-7-8-8-8-8-8-7-6—6-7
2η)---------------------8
            1η)6-7 -            
            2η)---8                 δις
            
     Θέλω από σε να αγαπήσεις          
1η)6-7-8-8-8-8-8-7-6—6-7                
2η)---------------------8

παιχνιδιάρα
1η)5-3-2-0          2-3-5-3-2-0-2 (γύρισμα γρήγορο)
    Τον πόνο της καρδιάς μου να μου σβήσεις
1η)2-2-2-2-7-5-3-2-3-2-0
                                         Θέλω από σε να αγαπήσεις   
1η) -  -  - 0-8-7-3-0-4-5-7-8-8-8-8-8-7-6—6-7
2η)0-1-4-------------------------------------8
 παιχνιδιάρα
1η)5-3-2-0   2-3-5-3-2-0-2 (γύρισμα γρήγορο)

Τον πόνο της καρδιάς μου να μου σβήσεις
1η)2-2-2-2-7-5-3-2-3-2-0- - - - -0---0
2η)------------------------0-1-4-- 0-0
3η)----------------------------------0



www.youtube.com/watch?v=tYdDpwMRvCc


Τίτλος: Απ: Παρτιτούρες για Μπαγλαμά Τζουρά 3χορδο μπουζούκι...
Αποστολή από: hristos στις Μάιος 22, 2010, 05:12:18 πμ
Φίλε ΜΑΚΗΣ να'σαι καλά, πολύ ωραίο τραγούδι ανέβασες!!!


Τίτλος: Απ: Παρτιτούρες για Μπαγλαμά Τζουρά 3χορδο μπουζούκι...
Αποστολή από: Vasilis Giannakes στις Μάιος 22, 2010, 07:46:46 πμ
geia sas manges, orea i selida  kai i doulia sas, pira prin kati hronia ena baglamadaki, kai prin enamisi hrono apofasisa na to matho.
idea den eho apo organa,ektos tin psora apo mikros na akouo rebetika.ala oso boro tha dokimazo na to pezo kai na matheno.
ta tragoudia pou vazete eine megali voithia. efhome na sinehisete ti doulia .
ena tragoudi pou tha ithela na matho (ektos polla alla opos : - ΟΙ ΣΦΟΥΓΓΑΡΑΔΕΣ - ΟΤΑΝ ΜΕ ΒΛΕΠΕΙΣ ΚΑΙ ΠΕΡΝΩ - Ο ΜΑΣΤΟΥΡΑΣ - ΕΑΝ ΔΕΝ ΗΣΟΥΝ ΦΘΙΣΙΚΙΑ k.a. ) eine to: Βαθειά στη θάλασσα θα πέσω edo to lei orea o Stelios Vamvakaris
http://www.youtube.com/watch?v=H89WuRTkKIU
an to kseri kapios na me voithisi efharisto.

sas efhome kali sinehia igeia, hereto apo germania
vasilis



Τίτλος: Απ: Παρτιτούρες για Μπαγλαμά Τζουρά 3χορδο μπουζούκι...
Αποστολή από: ΝΙΚ.Κ.ΠΟΥΛΑΚΗΣ στις Μάιος 22, 2010, 08:05:25 μμ
ΓΕΙΑ ΣΑΣ ΡΕΜΠΕΤΕΣ ΚΑΙ ΧΑΡΑ ΣΑΣ.
ΕΙΜΑΙ ΝΕΟΣ ΣΤΟ SITE ΑΛΛΑ ΣΑΣ ΠΑΡΑΚΟΛΟΥΘΩ ΠΑΡΑ ΠΟΛΥ ΚΑΙΡΟ ΚΑΙ ΣΥΓΧΑΡΗΤΗΡΙΑ ΣΕ ΟΛΟΥΣ ΣΑΣ.
ΠΑΙΖΩ ΚΑΙ ΕΓΩ ΛΙΓΟ ΤΕΤΡΑΧΟΡΔΟ ΜΠΟΥΖΟΥΚΑΚΙ ΚΑΙ ΕΧΩ ΜΑΘΕΙ ΠΑΡΑ ΠΟΛΛΑ ΑΠΟ ΕΣΑΣ.ΘΑ ΠΡΟΣΠΑΘΗΣΩ ΚΑΙ
ΕΓΩ ΝΑ ΑΝΕΒΑΣΩ ΟΤΙ ΜΠΟΡΩ.ΣΑΣ ΕΥΧΑΡΙΣΤΩ ΟΛΟΥΣ ΣΑΣ.


Τίτλος: Τι σήμερα τι αύριο τι τώρα (Β. Τσιτσάνης - Μ. Νίνου & Β. Τσιτσάνης)
Αποστολή από: ΝΙΚ.Κ.ΠΟΥΛΑΚΗΣ στις Μάιος 22, 2010, 09:30:27 μμ
ΤΙ ΣΗΜΕΡΑ ΤΙ ΑΥΡΙΟ ΤΙ ΤΩΡΑ
Β.Τ.
ΕΙΣΑΓΩΓΗ
3-3-3--3-2-2-0--0-2-2-2--2-0-0-(3)--0-9-10-10--12-12-12-12-12-12--12-10-9--7-5-3-
2-3-2-0--12-14-15--17-15-17-15--15-12-12-9--12-12-10--10-10-14-17--15-15-15-14--12-10-9-7--5-0-[5]
ΛΟΓΙΑ.
Τι σημερα τι αυριο τι τωρα
5-5-7-9-10-12-9-10-12-14-12-12        
ας καθαρισουμε μια ωρ' αρχιτερα
12-12-12-12-10-9-12-9-5-14-12-10-10
του χωρισμου μας εφτασε η ωρα
10-10-10-10-10-10-9-7-5-10-7-7
μπορει και για τους δυο να ναι καλυτερα
5-5-5-5-5-5-5-7-9-10-9-7-7-
ας καθαρισουμε μια ωρ' αρχιτερα
7-9-10-12-12-12-12-12-10-9-7-5-5- (δις)



www.youtube.com/watch?v=EXZ4T9XSu5Y


Τίτλος: Απ: Παρτιτούρες για Μπαγλαμά Τζουρά 3χορδο μπουζούκι...
Αποστολή από: lep στις Μάιος 24, 2010, 05:00:11 μμ
mpravo sas paidia. eime kainoyrgios kai tha prospathisv na anabasw kai egw kanene tragodaki.


Τίτλος: Απ: Παρτιτούρες για Μπαγλαμά Τζουρά 3χορδο μπουζούκι...
Αποστολή από: tom13 στις Μάιος 24, 2010, 08:57:11 μμ
geia sas paidia , na akoma ena tou markou... to peiraiotissa tou papaioannou kaneis?

«ΦΙΝΑ ΤΑ ΄ΧΕΙΣ ΚΑΤΑΦΕΡΕΙ»  - (Μ. ΒΑΜΒΑΚΑΡΗΣ)

7-5-7-3-5-2-3--2--------------------------------------------2---
--------------5--3-5-3-2-0--5--3-5-2-3-0-3---0--0-2-3--3-5-----
--------------------------------------------5---------------------


7-5-7-3-5-2-3--2---------------------------------7-7-7-7-7-7-7-----
--------------5--3-5-3-2-0--5--3-5-2-3-0-3---0---------------------
--------------------------------------------5---------------------2--


Στίχοι
      Φί----να      ταχεις  κα-τα-φέ—ρει                   στα      νε----ρά σου μεχεις φέ-----ρει
      -------2------------------------2--2-2-2-2-2----------2------------------------------------
Α    0-------------3--5--3--2--0--------------------0-------------3--5--3--2--0--0-0-0--0-0-0--
      --------------------------------------------------------------------------------------------


7----7--7--14--7--14----10--10-12-10--9--7--14-14-14--14-14-14-12-10-9
---------------------------------------------------------------------------
---------------------------------------------------------------------------                                                                                                                                                       
                                                                                                                                                   
7----7--7--14--7--14----10--10-12-10--9--7--7-7-7-7-7-7-7--5-4
------------------------------------------------------------------
------------------------------------------------------------------

Και-- στο--- κέ----φι- σου--- με--- φέρ-νεις    νου-- και--- σκέ---ψη- μου-  τα--  παίρ----νεις
5--4--5--7--5--3--2---2-----------------------5--4--5--7--5--3--2---2------------------------------ }
---------------------5----5--3--2--3----3--------------------------5----5--3--2--0--0-0-0--0-0-0----}  X2
------------------------------------------------------------------------------------------------------}


5--5-4-5--7--5-7-3-5-2-3-0--2----2-----------------------------
---------------------------------5--3-5-3-2-3--3-3-3--3-3-3----
-----------------------------------------------------------------

5--5-4-5--7--5-7-3-5-2-3-0--2----2------------7-7-7-7-7-7-7-----
---------------------------------5--3-5-3-2-0---------------------
----------------------------------------------------------------2--             συνέχεια από το σημείο Α


Τίτλος: Απ: Παρτιτούρες για Μπαγλαμά Τζουρά 3χορδο μπουζούκι...
Αποστολή από: ΡΕΜΠΕΤΗΣ στις Μάιος 24, 2010, 09:37:54 μμ
Παιδες καλησπερα
Να προσεχουμε λιγο τι ανεβαζει ο καθενας, πρωτον για να μην ανεβαινουν δυο φορες τα ιδια πραγματα, και δευτερον για να μην παρουσιαζει ο καθενας τον κοπο του αλλονου για δικο του.
Συγκεκριμενα αναφερομαι στον tom13 . Το "Φινα ταχεις καταφερει" που ανεβασε ειναι αντιγραφη σ αυτο που εχω ανεβασει εγω στη σελιδα 14. 
Κατα τ αλλα επανερχομαι μεχρι την παρασκευη με κατι παραγγελιες που μου εχετε κανει σε pm
Καλες πενιες.



.
geia sas paidia , na akoma ena tou markou... to peiraiotissa tou papaioannou kaneis?

«ΦΙΝΑ ΤΑ ΄ΧΕΙΣ ΚΑΤΑΦΕΡΕΙ»  - (Μ. ΒΑΜΒΑΚΑΡΗΣ)

7-5-7-3-5-2-3--2--------------------------------------------2---
--------------5--3-5-3-2-0--5--3-5-2-3-0-3---0--0-2-3--3-5-----
--------------------------------------------5---------------------


7-5-7-3-5-2-3--2---------------------------------7-7-7-7-7-7-7-----
--------------5--3-5-3-2-0--5--3-5-2-3-0-3---0---------------------
--------------------------------------------5---------------------2--


Στίχοι
      Φί----να      ταχεις  κα-τα-φέ—ρει                   στα      νε----ρά σου μεχεις φέ-----ρει
      -------2------------------------2--2-2-2-2-2----------2------------------------------------
Α    0-------------3--5--3--2--0--------------------0-------------3--5--3--2--0--0-0-0--0-0-0--
      --------------------------------------------------------------------------------------------


7----7--7--14--7--14----10--10-12-10--9--7--14-14-14--14-14-14-12-10-9
---------------------------------------------------------------------------
---------------------------------------------------------------------------                                                                                                                                                       
                                                                                                                                                   
7----7--7--14--7--14----10--10-12-10--9--7--7-7-7-7-7-7-7--5-4
------------------------------------------------------------------
------------------------------------------------------------------

Και-- στο--- κέ----φι- σου--- με--- φέρ-νεις    νου-- και--- σκέ---ψη- μου-  τα--  παίρ----νεις
5--4--5--7--5--3--2---2-----------------------5--4--5--7--5--3--2---2------------------------------ }
---------------------5----5--3--2--3----3--------------------------5----5--3--2--0--0-0-0--0-0-0----}  X2
------------------------------------------------------------------------------------------------------}


5--5-4-5--7--5-7-3-5-2-3-0--2----2-----------------------------
---------------------------------5--3-5-3-2-3--3-3-3--3-3-3----
-----------------------------------------------------------------

5--5-4-5--7--5-7-3-5-2-3-0--2----2------------7-7-7-7-7-7-7-----
---------------------------------5--3-5-3-2-0---------------------
----------------------------------------------------------------2--             συνέχεια από το σημείο Α



Τίτλος: Απ: Παρτιτούρες για Μπαγλαμά Τζουρά 3χορδο μπουζούκι...
Αποστολή από: tom13 στις Μάιος 25, 2010, 03:44:13 πμ
ti simvaini re paidia , exo ekatontades tamplatoures , kai prospatho na tis mirasto kai me allous , afto nomizo oti einai to noima , oudepote tha parousiaza tin doulia kapoiou allou gia diki mou, ego aplos anevazo yliko pou diatheto, tora an sympipti na yparxei eidi to kommati afto den nomizo oti einai kati to toso sovaro. na ste oloi kala kai elpizo miden pareksigisi file rempeti. 


Τίτλος: Απ: Παρτιτούρες για Μπαγλαμά Τζουρά 3χορδο μπουζούκι...
Αποστολή από: thanos2121 στις Μάιος 25, 2010, 09:40:29 πμ
Κάποια πράγματα που θέλω να πω:

1ο: Φίλε tom13, αφού έχεις εκατοντάδες ταμπλατούρες,γιατί ανεβάζεις κάτι που υπάρχει? Ανέβασε ένα τραγούδι που δεν το έχει κανένας...

2ο: Τι θα γίνει με την τίγρη του ψαραντώνη ρε παιδιά? Μπορεί κανένας να κάνει κάτι? Την εισαγωγή σας παρακαλώ...

3ο: Πιάστε τα όργανα. Θα προκαλέσω πάταγο...


Τίτλος: Μες στου Βάβουλα τη γούβα (Στ. Κερομύτης/Στρ. Παγιουμτζής - Στ. Κερομύτης)
Αποστολή από: thanos2121 στις Μάιος 25, 2010, 09:44:31 πμ
Μες του Βάβουλα τη γούβα

Στίχοι: Στράτος Παγιουμτζής
Μουσική: Στέλιος Κερομύτης

Εισαγωγή

1η: 8-9-9-8-6-4-3-8-6-4-3----------------3-4-6---8-9-9-8-6-4-3-8-6-4-3----------------------
2η: ------------------------4-6-3-4-4-6-------------------------------------4-6-3-4----4----4-
3η: ----------------------------------------------------------------------------------6----6----

Λόγια

1η: -------3---3---------------3-4-6-6----------3---3----------------------
2η: 1-3-4----6---4-6-3-4-4-6------------1-3-4----6---4-6-3-4----4-----4--   
3η: ------------------------------------------------------------6 ----6-----

Τα λόγια παίζονται 2 φορές και μετά πάλι απο την αρχή...



www.youtube.com/watch?v=-YQcAmWX8uE


Τίτλος: Ο μπουφετζής (Γιώργος Μπάτης, [i]Αμπάτης[/i])
Αποστολή από: thanos2121 στις Μάιος 25, 2010, 09:48:33 πμ
Ο μπουφετζής

Στίχοι- Μουσική: Γιώργος Μπάτης

Εισαγωγή-Λόγια

1η: ---------------------------------------------------------------------------------------
2η: ---3-5-7-7-7-7-7-----3-5-7-7-7-7-7----10-8-7-5-5-5-5-5---8-7-5-3-3-3-3-3------------
3η: 5------------------5------------------------------------------------------------------   2 φορές

1η: -----------------------------------------------------------------------------
2η: 10-9-10-12-10-12-10---8-7-8-10-8-10-8---7-7-7-8-7---10-9-10-12-10-------

1η: ----------------------------------------------------------------
2η: 10-9-10-12-10-12-10---8-7-8-10-8-10-8---7-7-7-8-7---3----3--
3η: -----------------------------------------------------------5----

Τα λόγια του τραγουδιού βασίζονται στην εισαγωγή και παίζονται με τον ίδιο ακριβώς τρόπο...



www.youtube.com/watch?v=0We8Y7kOIiw


Τίτλος: Είμαι παιδάκι μάλαμα (Σπ. Περιστέρης/Μ. Μάτσας - Μ. Βαμβακάρης)
Αποστολή από: thanos2121 στις Μάιος 25, 2010, 09:52:49 πμ
Είμαι παιδάκι μάλαμα

Στίχοι: Μίνωας Μάτσας
Μουσική: Σπύρος Περιστέρης

Εισαγωγή-Λόγια

1η: 12-12-11-10-11-12-11-12-14-12-12-11-10-11-12-12-12-12   

1η: 11-14-12-10-9-7-9-10-9-7-6-7-4-5-6-7---10-7-10-9-7-6-6-7-6-3-2-0

Η πρώτη γραμμή στην εισαγωγή παίζεται μια φορά και στα λόγια του τραγουδιού δυο

Τα λόγια του τραγουδιού βασίζονται στην εισαγωγή και παίζονται με τον ίδιο ακριβώς τρόπο...



www.youtube.com/watch?v=G4hoa0ezK5A


Τίτλος: Ο παπατζής (Βαγγέλης Παπάζογλου, "Αγγούρης" - Στελλάκης Περπινιάδης)
Αποστολή από: thanos2121 στις Μάιος 25, 2010, 09:55:44 πμ
Ο παπατζής

Στίχοι- Μουσική: Βαγγέλης Παπάζογλου

Εισαγωγή

1η: 11-10-9-11-10--8-7-5-8-7---11-10-9-11-10--15-14-11-10-9-7-9-10--5-7-9-10

1η: 11-10-9-11-10--8-7-5-8-7---7-7-5-7-9-10-14-11-10-10-9-8-7-7-----7----7
2η: ------------------------------------------------------------------7----7---

Λόγια

1η: 7-7-5-7-9-10-14-11-10-10-9-8-7-7-7---7-7-5-7-9-10-14-11-10-10-9-7-9-10--10--10    x2

1η: 14-15-15---14-15-15-14-11-10-14-11-10-9-10-10-9-9-7-7—

1η: 7-7-5-7-9-10-14-11-10-10-9-7-9-10----10----10

1η: 14-15-15---14-15-15-14-11-10-14-11-10-9-10-10-9-9-7-7—

1η: 7-7-5-7-9-10-14-11-10-10-9-8-7-7

ΓΑΜΑΤΟ ΤΡΑΓΟΥΔΑΚΙ...



www.youtube.com/watch?v=zwOUwVqkcWw


Τίτλος: Χρόνια στον Περαία (Μ. Βαμβακάρης - Μ. Βαμβακάρης & Ρόζα Εσκενάζη)
Αποστολή από: thanos2121 στις Μάιος 25, 2010, 09:58:55 πμ
Χρόνια μες την Τρούμπα

Στίχοι- Μουσική: Μάρκος Βαμβακάρης

Εισαγωγή

1η: 10-10-10-10-9-6-10-9-6-5-9-6-5-3-6-5-3-2--3-8-6-5-3-2-3----2------------2-3-5
2η: -------------------------------------------------------------4-----4-3-3-4-------

1η: 10-10-10-10-9-6-10-9-6-5-9-6-5-3-6-5-3-2--3-8-6-5-3-2-3---2-------10-9-6-5-3-2----
2η: -------------------------------------------------------------4---4-3-----------------4-3

Λόγια

1η: -----2-3------3-3-3-5-6-6-6-6---9-9-9-10-6-5-2-3-2-3-4-5------
2η: -3-4-------------------------------------------------------------

1η: -----2-3-------3-3-3-5-6-6-6-6---6-5-3-2----------10-9-6-5-3-2------
2η: 3-4-------------------------------------------4-3------------------4-3-   2 φορές



www.youtube.com/watch?v=SHHbxRdZ1Yc


Τίτλος: Ο λαθρέμπορος (Γιώργος Καμβύσης - Χαράλαμπος Πετρόπουλος)
Αποστολή από: thanos2121 στις Μάιος 25, 2010, 10:01:25 πμ
Ο λαθρέμπορος

Στίχοι- Μουσική: Γιώργος Καμβύσης

Εισαγωγή

1η: 5-5-0-5-7-8-7-5-4-5--14-12-11-12---5-5-0-5-7-8-7-5-4-5-------4-5
2η: ------------------------------------------------------------5-7----

Λόγια

1η: 5-5-0-5-7-8-7-5-4-5--14-12-11-12---5-5-0-5-7-8-7-5-4-5-------4-5
2η: ------------------------------------------------------------5-7-----

1η: 12-13-15-17-15-13-12-10-8-7-5-7-8---12-13-15-17-15-13-12-10-8-7-6-5-5



www.youtube.com/watch?v=IHgCkLZzUqo


Τίτλος: Απ: Παρτιτούρες για Μπαγλαμά Τζουρά 3χορδο μπουζούκι...
Αποστολή από: thanos2121 στις Μάιος 25, 2010, 10:07:48 πμ
Μάγκες μου, αυτά από μένα. Τα ετοίμασα μέσα στο τριήμερο που βρήκα χρόνο. Κατάλαβες τώρα φίλε tom13? Αν έχεις 100 ταμπλατούρες όπως λες, γιατί δεν ανεβάζεις κάτι που δεν υπάρχει? Εγώ δεν συμφωνώ με το παιδί που σε κατηγόρησε ότι αντέγραψες, αλλα δεν διαφωνώ κιόλας. Στο χέρι σου είναι να πείσεις ότι λες αλήθειες...Σε περιμένουμε όλοι μας να μας βοηθήσεις να βγάλουμε τραγουδάκια που δεν ξέρουμε...


Τίτλος: Απ: Παρτιτούρες για Μπαγλαμά Τζουρά 3χορδο μπουζούκι...
Αποστολή από: alexandros papageorgiou στις Μάιος 25, 2010, 03:35:34 μμ
ΘΑΝΟ ΩΡΑΙΟΣ ΜΑΓΚΑΣ ΦΙΛΕ ΜΟΥ!ΑΝΕΒΑΣΕΣ ΠΡΑΜΑ ΜΠΟΛΙΚΟ!
ΩΡΑΙΑ ΚΟΜΜΑΤΙΑ!ΣΕ ΕΥΧΑΡΙΣΤΟΥΜΕ!
ΞΕΡΕΙ ΚΑΠΟΙΟΣ ¨ΤΟ ΠΑΙΔΙ ΤΟΥ ΔΡΟΜΟΥ¨ ΤΟΥ ΒΑΓΓΕΛΗ ΠΑΠΑΖΟΓΛΟΥ  Η
ΤΗΝ ''ΑΘΗΝΑΙΣΑ'' ΤΟΥ ΑΝΕΣΤΗ ΔΕΛΙΑ?



Τίτλος: Απ: Παρτιτούρες για Μπαγλαμά Τζουρά 3χορδο μπουζούκι...
Αποστολή από: Vasilis Giannakes στις Μάιος 25, 2010, 04:37:23 μμ
geia sas, Thanos eise zorikos,me ta orea tragoudakia pou mas vasis,
na ehis tin ygeia sou na mas valis kiala.
na efharistiso kai olla ta paidia edo pou vazete tragoudia naste oloi kala

paidia edo ena Link ehi se TABLATURE merika tragoudia tou MARKOU
http://www.spectacularopticals.com/MVA/MVA_tabs.html


  kali sinehia




Τίτλος: Απ: Παρτιτούρες για Μπαγλαμά Τζουρά 3χορδο μπουζούκι...
Αποστολή από: χαρης στις Μάιος 25, 2010, 04:53:27 μμ
Χρόνια μες την Τρούμπα

Στίχοι- Μουσική: Μάρκος Βαμβακάρης

Εισαγωγή

1η: 10-10-10-10-9-6-10-9-6-5-9-6-5-3-6-5-3-2--3-8-6-5-3-2-3----2------------2-3-5
2η: -------------------------------------------------------------4-----4-3-3-4-------

1η: 10-10-10-10-9-6-10-9-6-5-9-6-5-3-6-5-3-2--3-8-6-5-3-2-3---2-------10-9-6-5-3-2----
2η: -------------------------------------------------------------4---4-3-----------------4-3

Λόγια

1η: -----2-3------3-3-3-5-6-6-6-6---9-9-9-10-6-5-2-3-2-3-4-5------
2η: -3-4-------------------------------------------------------------

1η: -----2-3-------3-3-3-5-6-6-6-6---6-5-3-2----------10-9-6-5-3-2------
2η: 3-4-------------------------------------------4-3------------------4-3-   2 φορές


φιλε η ταμπλατουρα σου ειναι απο λαθος τονο και εχει και λαθακια συνολικα.

12 11 8  12 11 8 7  11 8 7  5  8 7 5 4  14 14  12 11  8 7  5 4  (6 5 5 4 5 6) 4 4 ( 6 ) 4 5  7
 11 12 11 8    12 11  8 7  11 8 7 5   8 7 5 4    11 12 14 14 12 11 8 7 5 4 (6 5 ) 4 5 6 7  4 5 (6 5 )

εβαλα την εισαγωγη ,τα λογια βαριεμαι τωρα να τα βαλω.
αλλη μερα



                                                                            


Τίτλος: Απ: Παρτιτούρες για Μπαγλαμά Τζουρά 3χορδο μπουζούκι...
Αποστολή από: thanos2121 στις Μάιος 25, 2010, 05:04:27 μμ
Προς φιλο χαρη

Εγω αυτην την εκτελεση βρηκα,αυτην εβγαλα. Για ολα τα τραγουδια υπαρχουν πολλες εκτελεσεις και εδω στο forum δεν βασιζονται ολες οι ταμπλατουρες στις αυθεντικες εκτελεσεις. Το οτι η ταμπλατουρα ειναι σε διαφορετικο τονο απο την δικη σου εκτελεση δεν σημαινει οτι ειναι και λαθος. Αυτα για την ενημερωση σου. Εγω βασιστηκα στην εξης εκτελεση: 

http://www.youtube.com/watch?v=H3h3PpSKhMo

που ειναι απο δάσκαλο ωδειου. Ακουσε την, παιξε και ξανακοιτα για λαθη.Αυτα...


Τίτλος: Απ: Παρτιτούρες για Μπαγλαμά Τζουρά 3χορδο μπουζούκι...
Αποστολή από: nikkortis στις Μάιος 25, 2010, 05:05:04 μμ
o χαμος!!!!!!!!!!μπραβο φιλε thano2121 μας εφτιαξες ασχημα!!!! μπραβο σε ολους οσους ανεβαζουνε!!!!

παιδια το να μπει ενα τραγουδι ιδιο αλλα με διαφορετικο παιξιμο δεν πειραζει... γιατι μπορει να ειναι καλητερο, μπορει βεβαια και χειροτερο, μπορει σε καποιον να του αρεσει πιο πολυ ο ενας ή ο αλλος τροπος παιξιματος, τωρα αμα εγινε copy - paste δεν χρειαζεται να κατηγορισουμε κανεναν...απλα ας μην επαναναληφθει καλητερα! παμε γερα και ενομενοι οπως ειμαστε !!!!!και απλα να προσεχουμε λιγο !  ;D


Τίτλος: Απ: Παρτιτούρες για Μπαγλαμά Τζουρά 3χορδο μπουζούκι...
Αποστολή από: thanos2121 στις Μάιος 25, 2010, 05:31:06 μμ
Φιλε nikkortis,

δεν τιθεται θεμα copy-paste στην συγκεκριμενη περιπτωση. Copy-paste δεν κανω ποτε. Η διαδικασια που ακολουθω για ενα τραγουδι ειναι η εξης: ακουω, βγαζω, γραφω, ανεβαζω. Βιβλια δεν χρησιμοποιω. Απο τον χαρη δεν μου αρεσε το υφακι του, καταλαβες? λαθη ολοι κανουμε, ειτε οταν βγαζουμε το τραγουδι ειτε οταν το γραφουμε...Αλλα να λεει κιολας " εβαλα την εισαγωγη ,τα λογια βαριεμαι τωρα να τα βαλω, αλλη μερα" παει πολυ. Αφου βρηκες λαθη,ανεφερε σε ποιο σημειο ειναι τα λαθη, τον τονο που εσυ παιζεις το τραγουδι και δωσε μας και το link για την εκτελεση...Εγω μαλ...ας ειμαι δηλαδη που προσπαθω να τα κανω οσο πιο αναλυτικα γινεται? Και τι ταμπλατουρα ειναι αυτην? Εδω υπαρχουν παιδια που παιζουν για μια βδομαδα και προσπαθουν να γρατσουνισουν. Η κανουμε σωστα μια δουλεια να τους βοηθησουμε και αυτους η δεν κανουμε. Να ξερουμε και τι μας γινεται...Και σωστη να ειναι η ταμπλατουρα του χαρη,ειναι κακογραμμενη και δυσνοητη.

Αλλα ξεχασα, ο χαρης βαριεται. Αλλη μερα...


Τίτλος: Απ: Παρτιτούρες για Μπαγλαμά Τζουρά 3χορδο μπουζούκι...
Αποστολή από: nikkortis στις Μάιος 25, 2010, 05:42:43 μμ
Φιλε nikkortis,

δεν τιθεται θεμα copy-paste στην συγκεκριμενη περιπτωση. Copy-paste δεν κανω ποτε. Η διαδικασια που ακολουθω για ενα τραγουδι ειναι η εξης: ακουω, βγαζω, γραφω, ανεβαζω. Βιβλια δεν χρησιμοποιω. Απο τον χαρη δεν μου αρεσε το υφακι του, καταλαβες? λαθη ολοι κανουμε, ειτε οταν βγαζουμε το τραγουδι ειτε οταν το γραφουμε...Αλλα να λεει κιολας " εβαλα την εισαγωγη ,τα λογια βαριεμαι τωρα να τα βαλω, αλλη μερα" παει πολυ. Αφου βρηκες λαθη,ανεφερε σε ποιο σημειο ειναι τα λαθη, τον τονο που εσυ παιζεις το τραγουδι και δωσε μας και το link για την εκτελεση...Εγω μαλ...ας ειμαι δηλαδη που προσπαθω να τα κανω οσο πιο αναλυτικα γινεται? Και τι ταμπλατουρα ειναι αυτην? Εδω υπαρχουν παιδια που παιζουν για μια βδομαδα και προσπαθουν να γρατσουνισουν. Η κανουμε σωστα μια δουλεια να τους βοηθησουμε και αυτους η δεν κανουμε. Να ξερουμε και τι μας γινεται...Και σωστη να ειναι η ταμπλατουρα του χαρη,ειναι κακογραμμενη και δυσνοητη.

Αλλα ξεχασα, ο χαρης βαριεται. Αλλη μερα...
συμφωνουμε σε ολα φιλε!!! και μπραβο σου για την δουλεια που κανεις! γουσταρω! εγω οτι εγραψα το εγραψα για τον tom13 και τον ΡΕΜΠΕΤΗ που μπηκε το χρονια μεσα στην Τρουμπα!

ελα δεν θελω τετοια ομως. τα παμε μια χαρα! ποοολυ καλα θα ελεγα. γιατι οταν το ανακαληψα το φορουμ ειχε ενα τραγουδι και ελεγα αραγε εκει θα μεινει, μετα μπηκανε κανα δυο τραγουδια και χαρηκα αλλα τα μαθαινα και ηθελα και αλλα και τωρα δεν σας προλαβαινω τρελοπαιδαααααααααα  ;D


Τίτλος: Απ: Παρτιτούρες για Μπαγλαμά Τζουρά 3χορδο μπουζούκι...
Αποστολή από: georgeee στις Μάιος 25, 2010, 08:08:12 μμ
mpravo re mages polu kalh douleia... To "politisa"  απο Μαρκο και το ΑΘΗΝΑΙΪΣΣΑ απο Δελια kapios an mporei


Τίτλος: Απ: Παρτιτούρες για Μπαγλαμά Τζουρά 3χορδο μπουζούκι...
Αποστολή από: hristos στις Μάιος 26, 2010, 08:16:49 πμ
Παιδιά ξέρει κανείς το ΚΑΡΔΙΑ ΠΑΡΑΠΟΝΙΑΡΑ του ΧΑΤΖΗΧΡΗΣΤΟΥ?


Τίτλος: Απ: Παρτιτούρες για Μπαγλαμά Τζουρά 3χορδο μπουζούκι...
Αποστολή από: alterna στις Μάιος 26, 2010, 08:46:46 μμ
Πήρε φωτιά το forum..καλά πάμε..
Ωραία κομμάτια..ένα κι ένα όλα..
Μάγκες μην χτυπιέστε χωρίς λόγο..το κέφι μας κάνουμε εδώ..τώρα αν ένα κομμάτι
ανέβηκε 2 φορές ή αν υπάρχουν λάθη δεν χάλασε κι ο κόσμος..αν ήταν έτσι θα πηγαίναμε στα Ωδεία..
Ύστερα ασχολούμαστε με το ρεμπέτικο και ο χώρος του ρεμπέτικου νομίζω δεν χωράει μεμψιμοιρίες και μικροπρέπειες του τύπου ''εγώ το έβγαλα καλύτερα απο τον άλλο'' και τέτοια..
Η μόνη λύση είναι να βγούν τα μαχαίρια..καθαρά πράματα..

Επίσης να θέσω υπόψιν και ενα πολύ καλό κομμάτι του Κηρομύτη το Μ'αρέσεις να'σαι μάγκισσα..
http://www.youtube.com/watch?v=SVNiVfmFtuc


Τίτλος: Κρασοπίνω [εισαγωγή] (Πάνος Τούντας - Γιάννης Τσανάκος)
Αποστολή από: tom13 στις Μάιος 26, 2010, 09:02:23 μμ
paidia pragmatika lipamai poly gia tin oli pareksigisi kai an egine kati athela mou sorry. lipon sas anavazo tin eisagogi apo to ¨ΚΡΑΣΟΠΙΝΩ¨ opos mou to eixe diksei odaskalos sto odeio ,den vrika xrono na peraso kai ta logia ma me tin proti efkairia tha to kano. episis diatheto kai kapoies tamplatoures (oxi dikes moy , tis vrika palia se kapoio allo site - to leo gia na apofektoun mellontikes pareksigisis) , na tis anevaso ? na ste oloi kala kai kales penies!!

                                                           ¨ΚΡΑΣΟΠΙΝΩ¨ (ΠΑΝ.ΤΟΥΝΤΑΣ)

1...........7..8..8..8..8..7..7..7..5..7..5....................5..............5.          

2. 8..10.........................................8..7..5..7..8.......8..7..8......8..7..8..5



1...........7..8..8..8..8..7..7..7..5..7..5....................5.................          

2. 8..10.........................................8..7..5..7..8.......8..7..8.....5



1. 12..12..13..13..14..14..15..15..17..15..13..12..15..13..12.......................................

2. ............................................................................15..13..13..12..12..11..11..10



1. 12....12..12..12..13..13..14..14..15..15..17..12..13......12...........12.........................

2. ...15...............................................................15.....13..15.......13..12..11..10..10



www.youtube.com/watch?v=sMVe1__QQaY


Τίτλος: Απ: Παρτιτούρες για Μπαγλαμά Τζουρά 3χορδο μπουζούκι...
Αποστολή από: nick30 στις Μάιος 26, 2010, 09:46:42 μμ
ΓΕΙΑ ΣΑΣ ΜΑΓΚΕΣ.ΕΙΣΤΕ ΟΛΟΙ ΠΟΛΥ ΩΡΑΙΟΙ ΚΑΙ ΜΠΡΑΒΟ ΣΑΣ.ΜΗΠΩΣ ΜΠΟΡΕΙ ΚΑΠΟΙΟΣ ΝΑ ΑΝΕΒΑΣΕΙ ΤΗΝ ΠΡΙΓΚΙΠΕΣΣΑ ΤΟΥ ΜΑΛΑΜΑ ΟΛΟΚΛΗΡΗ ΚΑΙ ΜΕ ΧΩΡΙΣΜΕΝΑ ΤΑ ΛΟΓΙΑ ΑΠΟ ΤΙΣ ΓΕΦΥΡΕΣ.ΕΥΧΑΡΙΣΤΩ


Τίτλος: Απ: Παρτιτούρες για Μπαγλαμά Τζουρά 3χορδο μπουζούκι...
Αποστολή από: nikkortis στις Μάιος 26, 2010, 10:11:40 μμ
tom13 δωσε δωσε.... οπααααααααα .... τραγουδαρα το Κρασοπινω!!!! βαλτο ολο... και οτι αλλο εχεις!!!!!


Τίτλος: Ώρες με θρέφει ο λουλάς (Μάρκος Βαμβακάρης, "Φράγκος")
Αποστολή από: megasteve στις Μάιος 26, 2010, 10:58:15 μμ
Ωρες με θρεφει ο λουλας

Του Μαρκου

Εισαγωγη:

--------------2-5--4-5-7---5--------0---0-2--3---2-1-2-3--5
--0-2-3-3------------------------------3------------------------
5-----------------------------------------------------------------

--------------2-5—4-5-7-5--------0---0-2--3---2-0--2----2--
--0-2-3-3---------------------------3--------------------3---3
5-------------------------------------------------------------------


Λογια:

Ω-ρες  με θρεφει ο λουλας ωρες  αδυναταω

                                                    
        --------------2-5--4-5--10--8-7-5--875--
        --0-2-3-3------------------------------------       Χ2
        5----------------------------------------------      

  Ω-ρες με ριχνει σε νταλκα κ ανθρωπου δεν μιλαω

                 5-7-5-4-5-10-8-7----5-4-5-7-5--875
                 ------------------------------------------
                 -----------------------------------------  

  Ω-ρες με ριχνει σε νταλκα κ ανθρωπου δεν μιλαω  
          
                 5-5---3--2--1----1--2--3--2--5--3-2-1-2--
                 -----------------3----------------------------3  
                 -------------------------------------------------------------


γυριζει ο νους μου εδω κ εκει κ ολος ο λογισμος μου (χ2)
κι αισθανομαι μια στιγμη θα ερθει ο θανατος μου(χ2)


Δεν θα μπορεσω ουτε στιγμη ποτες να τα ξεχασω(χ2)
στον κοσμο που γεννηθηκα ποτες να ησυχασω(χ2)


Ρεμπελεμενη μου ζωη παψε πια για τα μενα(χ2)
τι σου κανα κ μου κανες τ αματια βουρκωμενα(χ2)
                                                                                                                            


www.youtube.com/watch?v=-UP2Pxd_Z1o


Τίτλος: Απ: Παρτιτούρες για Μπαγλαμά Τζουρά 3χορδο μπουζούκι...
Αποστολή από: *MadmaX* στις Μάιος 26, 2010, 10:59:01 μμ
Εννοείται tom13! Keep walking!!!


Τίτλος: Αθηναίισσα (Ανέστης Δελιάς - Ανέστης Δελιάς & Στράτος Παγιουμτζής)
Αποστολή από: ΡΕΜΠΕΤΗΣ στις Μάιος 26, 2010, 11:22:45 μμ
Σας δίνω την Αθηναίισσα του Δελιά , και σιγά σιγά έρχονται κι άλλα


 «ΑΘΗΝΑΙΪΣΑ»      -     (Α. ΔΕΛΙΑΣ)


12-10-8--10-8-7--8-7-5--7-5-3--7--7-5-3-5-2-3-0--0-2-3--5--7----
--------------------------------------------------------------------
--------------------------------------------------------------------


12-10-8--10-8-7--8-7-5--7-5-3--7--7-5-3-5-2-3-0----0-----0
-----------------------------------------------------0---0--0
------------------------------------------------------------0

Στίχοι

  Μες την Α-θή-να    ξε----νυ---χτώ
0--0--2--3--5--12--10-12-8-10-7----------2-3-2-3-5-7----
0------------------------------------5-3-5----------------
0----------------------------------------------------------

   Για σέ-να βρε  μι--κρό--------μου
0--0--2--3--5--12--10-12-8-10-7----12-10-12-14-10-12-8-10-7----
0------------------------------------------------------------------
0------------------------------------------------------------------

    Και  κά-θε μέ-----ρα   ε---γώ-- για------σε, αμάν  α-μάν       }
3--3-2-3--5--6--6-5-6---5-5-6-5--3-5-3-2-3-----3--3--3----   }
3----------------------------------------------3--------3----   }
3------------------------------------------------------------   }
                                                                                         }   Χ 2
   Βρί-σκω το διά-------βο-λο----------- μου                            }
3--3-2-3--5--7--3--5--3--7--5--3-5-2-3-0-----0-----0             }
3--------------------------------------------0----0--0             }
3----------------------------------------------------0             }



www.youtube.com/watch?v=GZ9eWD-QzvQ


Τίτλος: Απ: Παρτιτούρες για Μπαγλαμά Τζουρά 3χορδο μπουζούκι...
Αποστολή από: alexandros papageorgiou στις Μάιος 27, 2010, 12:16:20 πμ
ΦΙΛΕ ΡΕΜΠΕΤΗ ΝΑ ΣΑΙ ΚΑΛΑ ΦΙΛΕ ΜΟΥ!
ΕΙΣΑΙ Ο ΚΑΛΥΤΕΡΟΣ ΜΑΓΚΑ !


Τίτλος: Απ: Παρτιτούρες για Μπαγλαμά Τζουρά 3χορδο μπουζούκι...
Αποστολή από: alexandros papageorgiou στις Μάιος 27, 2010, 12:35:14 πμ
ΜΠΡΑΒΟ ΣΕ ΟΛΟΥΣ ΤΟΥΣ ΜΑΓΚΕΣ ΕΔΩ ΜΕΣΑ ΠΟΥ ΚΑΘΟΝΤΑΙ ΚΑΙ ΑΣΧΟΛΟΥΝΤΑΙ ΚΑΙ ΓΟΥΣΤΑΡΟΥΜΕ ΟΙ ΥΠΟΛΟΙΠΟΙ ΜΑΓΚΕΣ ΠΟΥ ΒΑΡΑΜΕ ΤΙΣ ΠΕΝΙΕΣ ΜΑΣ ΤΙΣ ΑΛΑΝΙΚΕΣ!


Τίτλος: Απ: Παρτιτούρες για Μπαγλαμά Τζουρά 3χορδο μπουζούκι...
Αποστολή από: Vasilis Giannakes στις Μάιος 27, 2010, 07:41:49 πμ
geia sou rebeti merakli  me ta orea sou,
mefiakses me tin athinaiisa, ena ap ta agapimena mou ....

bravo sou nase kala



Τίτλος: Απ: Παρτιτούρες για Μπαγλαμά Τζουρά 3χορδο μπουζούκι...
Αποστολή από: kyuss στις Μάιος 27, 2010, 09:47:12 πμ
tom13 dn kserw pws na se euxaristhsw gia to kraso pinw eilikrina...anevase to olo otan exeis eukairia..


Τίτλος: Απ: Παρτιτούρες για Μπαγλαμά Τζουρά 3χορδο μπουζούκι...
Αποστολή από: kyuss στις Μάιος 27, 2010, 11:16:30 πμ
http://www.youtube.com/watch?v=grBUP95B1Nw&feature=related
PREPEI na mpei re paidia to tragoudi......


Τίτλος: Το πουλί (Ζακ Ιακωβίδης/Μιχάλης Γαβριηλίδης - Χρηστάκης)
Αποστολή από: ΡΕΜΠΕΤΗΣ στις Μάιος 27, 2010, 10:44:07 μμ
Μάγκες πάρτε τραγουδάρα να γουστάρετε.   (Υπομονή έρχονται κι άλλα)

«ΘΑ ΖΗΣΩ ΕΛΕΥΘΕΡΟ ΠΟΥΛΙ»  -  (ΧΡΗΣΤΑΚΗΣ)

------5--7---------5--7--------5--7-8-7-7-7-0-7-7-7-0-7---
5--8--------5--8---------5--8------------------------------
------------------------------------------------------------

------5--7--------5--7-8-7-8-5-7---5----------------------------5-
5--8--------5--8------------------8--7-8-5-5-5-0-5-5-5-0-5-7-8---
--------------------------------------------------------------------

Στίχοι
    Δε θέ-λω μόνι-μηαγκαλιά
7--7--7--5----------------------7-8-7-8-5-7--5----------5-
------------8--7--5--3--5--5----------------8--7-8-5-7-8--
------------------------------------------------------------

   δε θέ-λω  μό-νι-μα φι-λιά
7--7--7--5-----------------------7-8-7-8-5-7--5-------------
-------------8--7--5--3--5--5----------------8--7-8-5-7-3-7-
--------------------------------------------------------------

   δε θέ-λω   έ-λεγχο  τι κά-νω και που πά--ω
-------------5--5--5--5--5--------5--7----7-7-7-7-7-8-5-8-
5--5--7--8------------------7--8---------------------------
------------------------------------------------------------

    τι  ώ-ρα γύ-ρι-σα  εχτές
7--7--7--5----------------------7-8-7-8-5-7--5-------------
------------8--7--5--3--5--5----------------8--7-8-5-7-3-7-
------------------------------------------------------------

  με ποιες α-λήτευ-α προχθές
-------------------------5--------5-7--7-5-7--7-5-7--7-
5--5--5--5--5--5--7--8---------------8------8------8--
--------------------------------------------------------

  τέτοια σκλαβιά δε τη μπορώ δε τη βαστά---ω
5--5--5--5--5---5-5--5--5--------5--7----7----
----------------------------7--8---------------
------------------------------------------------

6-7-7-7-7-7-7-7-6-7-7-7-7-7-7-9-7-9-5-7-4-5---4-------4-5-7-9-11-12-14-11-14-
-----------------------------------------------7---5-5-7--------------------------
----------------------------------------------------------------------------------

      Θα  ζή--σω ελεύ-θε---ρο που--λί
12--12--12--12--12--11-----------12--------14-12-12-11-11-10-10-11-12-14-11-14-
--------------------------14--12--------12------------------------------------------
-------------------------------------------------------------------------------------

     κι ό--χι   κο--ρόι--δο στο  κλου-βί
12--12--12--12--12--11-----------12---------14-12-12-11-11-10-10-11-12---9-10-
--------------------------14--12---------12-------------------------------12-----
-----------------------------------------------------------------------------------

      για μια    μο-νά--χα  θη--λυ--κιά να  κε--λαι-δά----ω
11--11--11--11--11--9-----------11--9-----------------------9-11-
-------------------------12--10---------12--10--9----9----12-----
-------------------------------------------------------------------

       θα χτί--σω   εί---κο--σι   φω-λιές
12--12--12--12--12--11-----------12--------14-12-12-11-11-10-10-11-12-14-11-14-
--------------------------14--12--------12-----------------------------------------
------------------------------------------------------------------------------------

     κι ά--μα γου-στά--ρω  α--γκα-λιές
12--12--12--12--12--12--14--14--9------12--11-12-14-12-11-12-9---9-10-
-------------------------------------------------------------------12-----
--------------------------------------------------------------------------

       α---πό  κα--νά--ρα  σε   κα--νά-ρα θα   πε--τά----------ω
11--11--11--11--11--9-----------11--9----------------------------9-10-
-------------------------12--10---------12--10--9----10----12-12------
------------------------------------------------------------------------

       α---πό  κα--νά--ρα  σε   κα--νά-ρα θα    πε-τά----ω
11--11--11--11--11--9-----------11--9-------------------------
-------------------------12--10---------12--10--9----9----9----
----------------------------------------------------------------



www.youtube.com/watch?v=xlRFMYCftog


Τίτλος: Απ: Παρτιτούρες για Μπαγλαμά Τζουρά 3χορδο μπουζούκι...
Αποστολή από: matzore στις Μάιος 27, 2010, 11:14:17 μμ
rempeti pou eisoun xamenos toso kero kai afises ORFANO to foroum


Τίτλος: Απ: Παρτιτούρες για Μπαγλαμά Τζουρά 3χορδο μπουζούκι...
Αποστολή από: georgeee στις Μάιος 28, 2010, 01:53:05 μμ
rempeth na se kala re pasa mou....polu omorfa pramata sto site...


Τίτλος: Κρασοπίνω (Πάνος Τούντας - Γιάννης Τσανάκος)
Αποστολή από: tom13 στις Μάιος 28, 2010, 10:51:31 μμ
gia sas paides , ta logia sto krasopino opos sas sto yposxethika , na peraso kai to
¨ ΒΑΛΕ ΜΕ ΣΤΗΝ ΑΓΚΑΛΙΑ ΣΟΥ ¨ του ΠΑΠΑΖΟΓΛΟΥ?

                                              ¨ΚΡΑΣΟΠΙΝΩ¨ (ΛΟΓΙΑ)

1. 12----15--13--12-------------12-------------------------

2.----15-------------15--13--12-----15--13--13--12--11--10


1. ------7--8--7--8--10--12            ΑΠΑΝΤΗΣΗ
        
2. 8--10--------------------


1. 15--13--12---------------12-------------------------

2.--------------15--13--12------15--13--13--12--11--10


1. 13--12----------------            ΑΠΑΝΤΗΣΗ

2. --------14--13--12--10


1. ---12--12--12--12--12--12-----15--14--15--17--12

2. 15--------------------------15---------------------


1. 12--13--15--17--15--13--12-------------------------

2.------------------------------15--13--13--12--11--10


1. 13--12-----------------         ΑΠΑΝΤΗΣΗ

2.---------14--13--12--13


1.--------------------------12-------------------------

2. 13--14--13--12--13--14------14--13--13--12--11--10


1. 13--12---------------            ΑΠΑΝΤΗΣΗ

2.--------14--13--12--13


1. --------------------------12------------------------

2. 13--14--13--12--13--14------14--13--13--12--11--10


1. -------------------               ΑΠΑΝΤΗΣΗ

2. 8--10--5--7--8--10


1.-----------------12--------------------

2. 13--12--11--10-----15--13--12--11--10


1. -------7--8--7--8--10--12           ΑΠΑΝΤΗΣΗ

2. 8--10---------------------


1. 15--13--12--------------12---------------------

2.-------------15--13--12------15--13--13--12--11


1. 15--14------14--15--17        ΑΠΑΝΤΗΣΗ ΚΑΙ ΤΕΛΟΣ ΤΡΑΓΟΥΔΙΟΥ(ΣΤΗΝ ΣΥΝΕΧΕΙΑ ΤΗΝ ΕΙΣΑΓΩΓΗ)

2.---------17-------------


afta gia tin ora , na΄ste oloi kala, kai kales penies!!!



www.youtube.com/watch?v=sMVe1__QQaY


Τίτλος: Το 'ξερα πως θα μου φύγεις (Βασίλης Τσιτσάνης - Στέλιος Καζαντζίδης)
Αποστολή από: nick30 στις Μάιος 29, 2010, 07:04:07 μμ
Ενα ομορφο τραγουδακι για ολους τους ρεμπετες του forum.

ΤΟ ΞΕΡΑ

Εισαγωγή
-0-3—0-3-0-3--5-5-9--6-9-5-----5-5---10-10---14-14---14-12-10--7-7--10-10--5-5-----
5-5-3----0-3-5---

Λογια
Το ξε ρα το ξε ρα  πως θα μου φυ γεις    Και βα ρια θα πλη γω θω   το δι κο μου πα θος  κιη με γα λη ζη λεια
9   7  5   9  7   5   10   10   9   12  10     9    5  7   9   10   7   5     5  5  10 10  14 14    7   7  10  10 5   5
                                                                                                                                                                                              
Σε  κα  ναν   να  φυ  γεις   να  βρεις  ξε  να  χει  λια
5    5     10    10   12  12    7     7     10   10   5    5

Ε   φυ  γες   α    γα  πη     μου    Σε  πη  ραν  απ  τα  χε   ρια   τα   δι  κα   μου
9    7    9     10   9  7  5      3       3  7     7   10  10   14   14   12  10  12   10

Και   και γε  τη   κα  ρδια   μου
14   12  10   9    10   10     9       10    10   12  10

Και  γε  ται    και  γε  ται  μες  στην   φω  τια  σου    Κιο  καυ   μος  δεν  λε  γε  ται
9     7    5     9   7      5    10   10      9   12    10     9     5      7      9    10   7    5



www.youtube.com/watch?v=v94WnQiri-o


Τίτλος: Απ: Παρτιτούρες για Μπαγλαμά Τζουρά 3χορδο μπουζούκι...
Αποστολή από: kyuss στις Μάιος 29, 2010, 07:46:41 μμ
magkes to pws tha perasei h vradya poio kalo paidi tha to anevasei???eykolo einai.


Τίτλος: Απ: Παρτιτούρες για Μπαγλαμά Τζουρά 3χορδο μπουζούκι...
Αποστολή από: nikkortis στις Μάιος 29, 2010, 10:50:19 μμ
http://www.youtube.com/watch?v=ARXlG2YdYQQ

tom13  ενοειτε ρε! οτι εχεις! γουσταρω!


Τίτλος: Καραντουζένι (Μάρκος Βαμβακάρης, "Φράγκος")
Αποστολή από: Vasilis Giannakes στις Μάιος 30, 2010, 01:14:30 πμ
kai apo mena ena tragoudaki gia tin parea sas, to

       Καραντουζένι

   tou Markou Vamvakari
          
den to evgala o idios (san protaris pou ime me to baglamadaki)
mou to estile ena filaraki,ligo to dokimasa,mou fenete oti orea akougete.
gia kitaksteto eseis oi prohorimenoi kai diorthosteto.
kapos etsi omos paizete
akouste pos to pezi o Markos,( pou mono o Markos to paizi san ton Marko,
kai meta o Stelios B..)
ah poso tha goustara na do ton Stelio Vamvakari na pezi se kana mikro magazaki
me poli poli ligo kosmo 3,4 atoma,
kai na piname kai kana krasaki pareaoula, zorika thatan.


oi stihoi pane pantos panta eki 5h kai 6h seira (nomizo)



--4-0-4-7-6-7-8-7-7-6-5-4-4-6-7-6-7--
-------------------------------------
-------------------------------------


--4----4-7-6-7-8-7-11-8-7-7-5-5-4-4--4--4--
-----5-------------------------------5--5--
-------------------------------------------


--4-4-0-4-7-6-7-8-7-7-6-7-5-4-4-6-7-6-7-4-
------------------------------------------
------------------------------------------


----4---4-7-6-7-8-7-11-8-7-7-5-5-4-4--4--4--
--5---5-------------------------------5--5--
--------------------------------------------


Έπρεπε να 'ρχόσουνα μάγκα μες στο τεκέ μας,
--4---4-7-6-7-8-7-7-6-5-4-4-6-7-6-7-
----5-------------------------------
------------------------------------


και να 'κουγες το μπαγλαμά και τις διπλοπενιές μας.
-4---4---4-7-6-7-8-7-7-6-5-4-4--4--4--
-------5------------------------5--5--
--------------------------------------


--4---4-7-6-7-8-7-11-8-7-7-5-5-4-4-7-6-8-7--
----5---------------------------------------
--------------------------------------------


------0---7-6-7-8-7-7-8-7-5-5-7-5-4-4--4--4--
--9-9---9------------------------------5--5--
---------------------------------------------


--11-12-11---------------7-6-5-4-4-5-7-6-7-4-
-----------13-12-11-12-9---------------------
---------------------------------------------


--4---4-7-6-7-8-7-7-6-5-4-4--4--4--
----5------------------------5--5--
-----------------------------------


--12-11-12-14-12-11--------------------------------7-6-8-7--
--------------------13-12-11-12-11-12-11-12-10-9-9----------
------------------------------------------------------------


--12-11-12-14-12-11------------------------7-5-5-4-4----4----4--
--------------------13-12-11-12-11-12-10-9----------------------
----------------------------------------------------------------




Καραντουζένι

   
Στίχοι: Μάρκος Βαμβακάρης, Φράγκος
Μουσική: Μάρκος Βαμβακάρης, Φράγκος
Πρώτη εκτέλεση: Μάρκος Βαμβακάρης, Φράγκος



Έπρεπε να 'ρχόσουνα μάγκα
μες στο τεκέ μας
και να 'κουγες το μπαγλαμά
και τις διπλοπενιές μας.

ν'άκους να φχαριστηθείς
ν 'ακούσεις και λιγάκι
θέλεις δε θες να σηκωθείς
βόλτα για ζεϊμπεκάκι.

Ν' ακούσεις και το αραμπιέν
και το καραντουζένι
και σέ λιγάκι θα 'λεγες
ο αργιλές να γένει.

Θα σου φύγουν οι καημοί
να σπάσεις νταλκαδάκι
απ' τις πενιές που θ' άκουγες
από το μπουζουκάκι.



ante lipon heretismata kai stin eigeia mas....



www.youtube.com/watch?v=s6Mmr-kDbe4


Τίτλος: Απ: Παρτιτούρες για Μπαγλαμά Τζουρά 3χορδο μπουζούκι...
Αποστολή από: Vasilis Giannakes στις Μάιος 30, 2010, 01:22:55 πμ
edo sto you tube an theli kapios na to akousi

Karadouzeni - Markos Vamvakaris - Rebetiko Original


Τίτλος: Απ: Παρτιτούρες για Μπαγλαμά Τζουρά 3χορδο μπουζούκι...
Αποστολή από: Vasilis Giannakes στις Μάιος 30, 2010, 01:23:38 πμ
http://www.youtube.com/watch?v=aRIzHBzevrA&feature=related


Τίτλος: Απ: Παρτιτούρες για Μπαγλαμά Τζουρά 3χορδο μπουζούκι...
Αποστολή από: Vasilis Giannakes στις Μάιος 30, 2010, 01:36:00 πμ
     ΟΙ ΣΦΟΥΓΓΑΡΑΔΕΣ
pios to kseri afto na to vgali gia baglama,
oreo tragoudaki.

edo to original
http://www.youtube.com/watch?v=NckUx2Dmr_A

kai edo to paizi mia parea,orea pali
http://www.youtube.com/watch?v=zmVxWcazAR4


Τίτλος: Το βουνό (Λουκάς Νταράλας/Ευάγγελος Πρέκας - Λουκάς Νταράλας)
Αποστολή από: ΡΕΜΠΕΤΗΣ στις Μάιος 30, 2010, 09:54:39 μμ
Όπως πάντα οι υπογραμμισμένες τριάδες είναι τρίηχα, και οι κόκκινες παίζονται γρήγορα.


«ΤΟ ΒΟΥΝΟ»   -   (Λ. ΝΤΑΡΑΛΑ)


----2-3-3-3-3-3------2-3-3-3-3-3------2-3--3-2-5-----------------3-5-7-10-8-------7-
3-5---------------3-5--------------3-5--------------6-5-3-5-3-5-6-------------8-10---
---------------------------------------------------------------------------------------


8-8-8-8-8-8-12-10-8-7-7-8-7-----------7---8-7----------------5-5-5-5-5-5-5-5-5-7-5--------------------
-----------------------------10-8--8-10--10---10-10-8-6-6-5-3-------------------------8-6-5-3-6-5-6-5-3-6
-------------------------------------------------------------------------------------------------------------

Στίχοι

   Θα-νέ-βω και-------------  θα τραγουδή---σω--------------
----------2--3----3-5-2-5-3---------2--3----3-5-2-5-3-5-2-5-
5--3--5-----------------------3--5---------------------------
--------------------------------------------------------------

  στο πιο ψηλό-τε---ρο-βουνό
3--------2--3--3-2-5-3------------3-5-7-8-7-8-7-5-7-5--5-----------------7-
---3--5----------------6-5-5--5-6----------------------8--8-6-8-6-5--8-10--
-----------------------------------------------------------------------------

   ν΄α-κούγεται-------αι   στην ε---ρη--μιά                                             }
8--8----8-8-8--------12--12--10-8-7-8-5----5-5-5-5-5-7-3-7-                }
--------------------------------------------------------------                 }
--------------------------------------------------------------                 }
                                                                                                        }  Χ 2
    ο πό-νος μου με την- πε-νιά                                                              }
5-----5--7---------5-----------------5-7-8-7-8-7-5-7-5--5------------     }
---8--------8-6-5----8-6-5-5--5-6-8--------------------8--8-6-8-6-5--    }
-----------------------------------------------------------------------     }



www.youtube.com/watch?v=vDuVCTLFBL0


Τίτλος: Απ: Παρτιτούρες για Μπαγλαμά Τζουρά 3χορδο μπουζούκι...
Αποστολή από: nick30 στις Μάιος 30, 2010, 10:52:44 μμ
ΡΕΜΠΕΤΗ ΣΥΓΧΑΡΗΤΗΡΙΑ.ΜΕ ΕΦΤΙΑΞΕΣ ΤΩΡΑ.ΒΛΕΠΩ ΣΙΓΟΥΡΟ ΞΕΝΥΧΤΙ.ΣΥΝΕΧΙΣΕ!


Τίτλος: Παίζουν τα μπαγλαμαδάκια (Γιάννης Γαβαλάς/Γιώργος Ροβερτάκης - Χρηστάκης)
Αποστολή από: ΜΑΚΗΣ στις Μάιος 31, 2010, 10:08:15 μμ
ΠΑΙΖΟΥΝ ΤΑ ΜΠΑΓΛΑΜΑΔΑΚΙΑ
                         "ΧΡΗΣΤΑΚΗΣ"


εισαγωγη
1η) 3-3-1-0----0-1-3-1-0--0-1-3-5-7
2η) --------3-3----------3----------

1η) 3-3-1-0----0-1-3-1-0--0-0-0
2η) --------3-3----------3--0-0

λογια
 παι   ζουν τα μπαγλαμαδακια
1η) 7--0--8-7-5-8-7-7-7  δις

  καλε παιζουνε τα μπαγλαμαδακια
1η)7-8-10-8-7-5-7-3-5-1-0-1-3-5-7
   μανα μου κατι μερακια
1η)10-8-7-5-7-3-5-1-0-0-0
2η)-------------------0-0




ΕΡΩΤΗΣΗ: τι ειναι τα "τριηχα";;;



www.youtube.com/watch?v=4BbAtY5mG4o


Τίτλος: Απ: Παρτιτούρες για Μπαγλαμά Τζουρά 3χορδο μπουζούκι...
Αποστολή από: ΡΕΜΠΕΤΗΣ στις Ιούνιος 01, 2010, 12:12:03 πμ
Σχετικά με τα τρίηχα.

Θα προσπαθήσω να το εξηγήσω όσο πιο απλά μπορώ γι΄αυτούς που δε γνωρίζουν από θεωρία μουσικής.
Το τρίηχο αποτελείται από τρεις νότες.  (στα τραγούδια που ανεβάζω, είναι τρεις νότες υπογραμμισμένες).
Ο χρόνος που κρατάνε και οι τρείς νότες ενός τρίηχου, είναι ίσος με το χρόνο που κρατάνε δύο νότες ίδιου χρόνου.
Δηλαδή σε ένα τρίηχο θα πρέπει να παίξουμε και τις τρείς νότες σε χρόνο ίσο με το χρόνο που θα παίζαμε δύο νότες ίδιας χρονικής αξίας. (οπότε παίζονται λίγο πιο γρήγορα)

Ελπίζω να βοήθησα.

Υ.Γ. 1:  Καλό θα είναι να μάθετε και τους λαϊκούς δρόμους (αναφέρομαι σε όσους δεν τους ξέρουν ήδη), γιατι ετσι θα βγάζετε πιο άνετα τα τραγούδια. Αν δεν τους έχετε πείτε μου να τους ανεβάσω κάποια στιγμή.

Υ.Γ. 2:  Προσεχώς έρχονται : "Καρδιά παραπονιάρα" του Χατζηχρήστου,   "Άνοιξε γιατι δεν αντέχω" του Παπαϊωάννου, "Οταν συμβεί στα πέριξ" του Τσιτσάνη, κλπ....


Τίτλος: Απ: Παρτιτούρες για Μπαγλαμά Τζουρά 3χορδο μπουζούκι...
Αποστολή από: matzore στις Ιούνιος 01, 2010, 08:35:44 πμ
giasou rebeti
mipos mporis na anewasis tragoudia me kanonikes partitoures???
KAI APO kato an ta kataferis wale tis xordes  gia ta patimata
tha mas einai megali woithia
kalimera se ola ta paidia


Τίτλος: Απ: Παρτιτούρες για Μπαγλαμά Τζουρά 3χορδο μπουζούκι...
Αποστολή από: stamf στις Ιούνιος 01, 2010, 02:32:49 μμ
ΡΕΜΠΕΤΗ σε έχουμε ζαλίσει αλλά έτσι είναι με τις ''πρωτοπορίες''! Ανέβασε όποτε μπορείς τους δρόμους αν ειναι δυνατό σε tab. Όντως θα μας βοηθήσει!

Να σαι καλά!


Τίτλος: Απ: Παρτιτούρες για Μπαγλαμά Τζουρά 3χορδο μπουζούκι...
Αποστολή από: nikkortis στις Ιούνιος 01, 2010, 05:18:40 μμ
ΡΕΜΠΕΤΗΣ προσκυναμε... αντε να βαζουμε και οι υπολοιποι....


Τίτλος: Απ: Παρτιτούρες για Μπαγλαμά Τζουρά 3χορδο μπουζούκι...
Αποστολή από: alexandros papageorgiou στις Ιούνιος 01, 2010, 06:22:52 μμ
ΜΑΓΚΕΣ ΣΤΟ ΡΕΜΠΕΤΙΚΟ ΦΟΡΟΥΜ ΑΝ ΓΡΑΦΤΕΙΤΕ ΕΧΕΙ ΤΟΥΣ ΔΡΟΜΟΥΣ ΣΕ ΜΟΡΦΗ ΤΑΜΠΛΑΤΟΥΡΑΣ ΤΟΥΣ ΠΙΟ ΠΟΛΛΟΥΣ ΑΛΛΑ ΠΡΩΤΑ ΠΡΕΠΕΙ ΝΑ ΓΡΑΦΤΕΙΤΕ ΕΙΝΑΙ ΣΤΙΣ ΔΗΜΟΣΙΕΣ ΟΜΑΔΕΣ==>ΔΡΟΜΟΙ
http://www.rembetiko.gr/forums/group.php?groupid=15

ΕΠΙΣΗΣ ΡΙΞΤΕ ΚΑΙ ΕΔΩ ΜΙΑ ΜΑΤΙΑ
http://www.u8329492.fsdata.se/index.php?option=com_content&task=category&sectionid=5&id=16&Itemid=42
ΕΙΝΑΙ ΚΑΛΟ ΕΧΕΙ ΠΟΛΛΟΥΣ ΚΑΙ ΕΠΙΣΗΣ ΔΕΙΧΝΕΙ ΤΗΝ ΤΑΣΤΙΕΡΑ ΤΟΥ ΜΠΟΥΖΟΥΚΙΟΥ ΝΑ ΜΑΘΑΙΝΟΥΜΕ ΣΙΓΑ ΣΙΓΑ ΚΑΙ ΤΙ ΝΟΤΕΣ ΠΑΙΖΟΥΜΕ ΚΑΙ ΜΕ ΚΟΚΚΙΝΕΣ ΒΟΥΛΕΣ ΔΕΙΧΝΕΙ ΜΕ ΠΙΟ ΔΑΧΤΥΛΟ 1 Η 2 Η 3 Η 4 ΠΑΤΑΜΕ ΤΗΝ ΝΟΤΑ ΚΑΙ ΤΑ ΠΟΡΤΟΚΑΛΙ ΚΟΥΤΑΚΙΑ ΣΗΜΑΙΝΕΙ ΟΤΙ ΑΥΤΗ Η ΝΟΤΑ ΑΝΗΚΕΙ ΣΤΟ ΔΡΟΜΟ.ΕΛΠΙΖΩ ΝΑ ΤΟ ΚΑΤΑΛΑΒΕΤΕ ΕΙΝΑΙ ΑΠΛΟ!ΟΙ ΝΟΤΕΣ ΣΥΜΒΟΛΙΖΟΝΤΑΙ ΕΤΣΙ ΓΙΑ ΟΣΟΥΣ ΔΕΝ ΞΕΡΟΥΝ
ΛΑ ===> Α
ΣΙ  ===> Β
NTO ===>C
ΡΕ   ===>D
MI  ===>E
ΦΑ  ===>F
ΣΟΛ ===>G



Τίτλος: Απ: Παρτιτούρες για Μπαγλαμά Τζουρά 3χορδο μπουζούκι...
Αποστολή από: ΜΑΚΗΣ στις Ιούνιος 01, 2010, 08:38:16 μμ
ΡΕΜΠΕΤΗ ΕΥΧΑΡΗΣΤΩ ΓΙΑ ΤΗΝ ΕΠΕΞΗΓΗΣΗ ΤΩΝ ΤΡΙΗΧΩΝ!!!

matzore ΘΑ ΜΠΟΡΟΥΣΑ ΝΑ ΒΑΛΩ ΝΟΤΕΣ ΑΛΛΑ ΔΕΝ ΞΕΡΩ ΠΩΣ
ΝΑ ΤΑ ΠΕΡΑΣΩ ΣΤΟΝ ΥΠΟΛΟΓΙΣΤΗ ΜΕ ΤΗΝ ΜΟΡΦΗ ΤΟΥ ΠΕΝΤΑΓΡΑΜΜΟΥ


Τίτλος: Απ: Παρτιτούρες για Μπαγλαμά Τζουρά 3χορδο μπουζούκι...
Αποστολή από: hristos στις Ιούνιος 01, 2010, 10:28:56 μμ
Παιδιά καλό θα ήταν να ανεβάζαμε παρτιτούρες αλλά νομίζω πως προστατεύονται από πνευματικά δικαιώματα και ειναι πιθανό να εχουμε πρόβλημα


Τίτλος: Απ: Παρτιτούρες για Μπαγλαμά Τζουρά 3χορδο μπουζούκι...
Αποστολή από: alexandros papageorgiou στις Ιούνιος 01, 2010, 11:32:38 μμ
ΜΑΓΚΕΣ ΤΙ ΝΑ ΤΙΣ ΚΑΝΟΥΜΕ ΤΙΣ ΠΑΡΤΙΤΟΥΡΕΣ ΚΙΝΕΖΙΚΑ ΘΑ ΤΑ ΒΛΕΠΟΥΜΕ ΟΙ ΠΕΡΙΣΣΟΤΕΡΟΙ ΑΠΟ ΜΑΣ!ΑΣΕ ΚΑΙ ΤΑ ΠΝΕΥΜΑΤΙΚΑ ΔΙΚΑΙΩΜΑΤΑ ΜΗΝ ΓΙΝΕΙ ΚΑΜΙΑ ΜΑΛΑΚΙΑ ΚΑΙ ΜΑΣ ΤΟ ΚΛΕΙΣΕΙ ΚΑΝΑΣ ΠΟΥΣ..Σ!
ΕΤΣΙ ΜΙΑ ΧΑΡΑ ΠΑΜΕ!


Τίτλος: Απ: Παρτιτούρες για Μπαγλαμά Τζουρά 3χορδο μπουζούκι...
Αποστολή από: ΡΕΜΠΕΤΗΣ στις Ιούνιος 01, 2010, 11:45:57 μμ
Παίδες το δεύτερο link για τους δρόμους που έδωσε πιο πάνω ο φίλος Αλέξανδρος είναι άπαιχτο.
Μπορείτε να τους δείτε αναλυτικότατα από εκεί, και μάλιστα έχει και τις συγχορδίες του κάθε δρόμου.
Όσο για τις παρτιτούρες πράγματι υπάρχει θέμα με τα πνευματικά δικαιώματα, εχουν δημιουργηθεί προβλήματα και σε άλλα φόρουμ


Τίτλος: Απ: Παρτιτούρες για Μπαγλαμά Τζουρά 3χορδο μπουζούκι...
Αποστολή από: matzore στις Ιούνιος 02, 2010, 09:55:26 πμ
rixte mia matia se autin tin selida ttha woithisi
http://bouzoukigr.blogspot.com/
nomizo arketa gia na mathoume tis notes
kai oso gia tis partes ean den ginetai ti na kanoume
tha trwiksoume ton golgotha me ta noumera
akomi ena link
http://bouzouki-place.blogspot.com/2009/03/midi_27.html
kai ena akomi gia osous eine gnostes tis germanikis glosas
http://www.bouzouki-musik.de/forum/
tora write xrono na meletisete


Τίτλος: Απ: Παρτιτούρες για Μπαγλαμά Τζουρά 3χορδο μπουζούκι...
Αποστολή από: matzore στις Ιούνιος 02, 2010, 10:04:28 πμ
kai akomi mia poli kali selida
eine kali exei kai arketa tragoudakia
me argo kai grigoro peksimo
http://www.kampana.gr/lessons.php

MIN AFOSIOTHITE MONO STIN MELETI KAI AFISETAI TIN SELIDA
MAS PARAMERA


Τίτλος: Απ: Παρτιτούρες για Μπαγλαμά Τζουρά 3χορδο μπουζούκι...
Αποστολή από: georgeee στις Ιούνιος 04, 2010, 06:46:02 μμ
Ρεμπετη μηπως μπορεις να βαλεις την πολιτισσα και το βαθεια στην θαλασσα?? Πολυ καλη δουλεια παντως απο ολους ...μας βοηθατε εμας τους νεους...


Τίτλος: Απ: Παρτιτούρες για Μπαγλαμά Τζουρά 3χορδο μπουζούκι...
Αποστολή από: Σωτήρης στις Ιούνιος 06, 2010, 02:43:39 μμ
Γεια σας παιδια! μπραβο για το ενδιαφέρον, τις γνώσεις και για τα κομματια που ανεβάζετε σε ταμπλατουρες. Μήπως μπορεί κανένας να ανεβάσει το ''Η Ελένη η ζωντοχείρα'' (Γιοβαν τσαους) και ''Μισιρλού μου'' (την αυθεντική εκτέλεση εννοείται) σε ταμπλατουρα?


Τίτλος: Απ: Παρτιτούρες για Μπαγλαμά Τζουρά 3χορδο μπουζούκι...
Αποστολή από: matzore στις Ιούνιος 07, 2010, 04:11:42 πμ
edo tha write arketes partes
http://rapidshare.com/files/381285247/Partitoures.part1.rar
http://rapidshare.com/files/381285250/Partitoures.part2.rar
http://rapidshare.com/files/381293699/Partitoures.part3.rar
kali meleti


Τίτλος: Απ: Παρτιτούρες για Μπαγλαμά Τζουρά 3χορδο μπουζούκι...
Αποστολή από: matzore στις Ιούνιος 07, 2010, 05:06:13 πμ
kai allo link
kalo diabasma

http://rapidshare.com/files/380666710/polyka_2010.rar.html

Pass: polyka


Τίτλος: Βαθειά στη θάλασσα θα πέσω (Γ. Ζαμπέτας/Χ. Βασιλειάδης - Στέλιος Καζαντζίδης)
Αποστολή από: Vasilis Giannakes στις Ιούνιος 07, 2010, 07:52:32 μμ
VATHIA sTI THALASSA THA PESA



D||-------------------7-------7-------------7---8-7-10-8-11-10-14-11-10-9-10-|
A||-3-5-3-6-5-8-7-9-8---9-8-7-8-----8-7-9-8---9------------------------------|
D||--------------------------10--10------------------------------------------|



|-10-11-10-8-8-10-8-7-7-8-7-----7-----------------------------2-3-2------0-|
|---------------------------9-9---9-8-7-8-9-9-8-8-7-7-5-5-3-5----5-3-5-0-0-|
|------------------------------------------------------------------------0-|



|-12-12-12--10--12-12-12-7-8-7-7-8-9-10-10-10--10--5-7-5-3-5-7-8-7-7-5-3-|
|------------------------------------------------------------------------|
|------------------------------------------------------------------------|



|-------7-8-10-8-10-7----------------7-8-10-10-8-10-7--------
|8-8-8-9-------------9-8-7-8--8-8-8-9-----------------9-8-7-8
|------------------------------------------------------------



|--------7-8-10-8-10-7-8-7-7-------------------2-3-2----|
|8-8-8-9------------------8-9-9-8-8-7-7-5-5-3-5---5-3-5-|
|-------------------------------------------------------|




mou to estile enas me poli XARI makrinos filos, kai ego to
afierono ston patera mou ton Anastasio Giannake,
pou ksepsihise simera ta ksimeromata.


thase panta stin kardia mou kai stin mnimi mou

    me agapi to pedi sou
            
            Vasilis



www.youtube.com/watch?v=rDf1bGJEUfk


Τίτλος: Απ: Παρτιτούρες για Μπαγλαμά Τζουρά 3χορδο μπουζούκι...
Αποστολή από: hristos στις Ιούνιος 07, 2010, 10:45:45 μμ
Φίλε Vasilis συλλυπητήρια, να είσαι καλά να τον θυμάσαι!


Τίτλος: Απ: Παρτιτούρες για Μπαγλαμά Τζουρά 3χορδο μπουζούκι...
Αποστολή από: nikkortis στις Ιούνιος 07, 2010, 11:29:08 μμ
φιλε Βασιλη (Vasilis Giannakes) να εισαι γερος να τον θυμασαι! συλληπητηρια!


Τίτλος: Απ: Παρτιτούρες για Μπαγλαμά Τζουρά 3χορδο μπουζούκι...
Αποστολή από: Snake στις Ιούνιος 07, 2010, 11:40:44 μμ
Φιλε Vasilis να σαι καλα να τον θυμασαι. Συλλυπητηρια.


Τίτλος: Απ: Παρτιτούρες για Μπαγλαμά Τζουρά 3χορδο μπουζούκι...
Αποστολή από: ΡΕΜΠΕΤΗΣ στις Ιούνιος 07, 2010, 11:54:26 μμ
Φίλε Βασίλη, τα συλλυπητήριά μου για τον πατέρα σου.
Να ζείς να τον θυμάσαι.

Γιώργος.


Τίτλος: Απ: Παρτιτούρες για Μπαγλαμά Τζουρά 3χορδο μπουζούκι...
Αποστολή από: *MadmaX* στις Ιούνιος 08, 2010, 12:04:18 πμ
Έτσι πρέπει να "φεύγουν" οι άνθρωποι κι έτσι πρέπει να τους τιμάμε, εμείς που μένουμε πίσω, με τραγούδια. Είσαι μάγκας Βασίλη, και μάγκας πρέπει να 'ηταν κι ο πατέρας σου. Να είναι ελαφρύ το χώμα... Καλό ταξίδι νά 'χει...


Τίτλος: Απ: Παρτιτούρες για Μπαγλαμά Τζουρά 3χορδο μπουζούκι...
Αποστολή από: alexandros papageorgiou στις Ιούνιος 08, 2010, 12:23:52 πμ
ΝΑ ΖΗΣΕΙΣ ΝΑ ΤΟΝ ΘΥΜΑΣΑΙ ΡΕ ΜΑΓΚΑ .ΔΥΣΤΥΧΩΣ ΑΥΤΟΙ ΠΟΥ ΑΓΑΠΑΜΕ ΚΑΠΟΙΑ ΣΤΙΓΜΗ ΦΕΥΓΟΥΝ ΚΑΙ ΜΑΣ ΑΦΗΝΟΥΝ, ΕΤΣΙ ΕΙΝΑΙ ΑΥΤΗ Η ΠΟΥΤΑΝΑ Η ΖΩΗ . ΤΑ ΣΥΛΛΥΠΗΤΗΡΙΑ ΜΟΥ ΦΙΛΕ ΒΑΣΙΛΗ .ΚΟΥΡΑΓΙΟ ΚΑΙ Ο ΧΡΟΝΟΣ ΘΑ ΓΙΑΤΡΕΨΕΙ ΤΙΣ ΠΛΗΓΕΣ.


Τίτλος: Απ: Παρτιτούρες για Μπαγλαμά Τζουρά 3χορδο μπουζούκι...
Αποστολή από: matzore στις Ιούνιος 08, 2010, 03:33:56 πμ
ta silipitiriamou nase geros na ton thimase


Τίτλος: Απ: Παρτιτούρες για Μπαγλαμά Τζουρά 3χορδο μπουζούκι...
Αποστολή από: χαρης στις Ιούνιος 08, 2010, 02:36:27 μμ
συλλυπητηρια 


Τίτλος: Απ: Παρτιτούρες για Μπαγλαμά Τζουρά 3χορδο μπουζούκι...
Αποστολή από: alterna στις Ιούνιος 08, 2010, 06:16:35 μμ
Τα συλληπητήρια και απο μένα φίλε μου..να τον θυμάσαι..


Τίτλος: Απ: Παρτιτούρες για Μπαγλαμά Τζουρά 3χορδο μπουζούκι...
Αποστολή από: tom13 στις Ιούνιος 08, 2010, 07:28:54 μμ
Therma silipitiria file vasili kai apo mena.


Τίτλος: Απ: Παρτιτούρες για Μπαγλαμά Τζουρά 3χορδο μπουζούκι...
Αποστολή από: kthulu στις Ιούνιος 08, 2010, 10:00:47 μμ
και από μένα φιλε Βασίλη συλλυπητήρια.


Τίτλος: Απ: Παρτιτούρες για Μπαγλαμά Τζουρά 3χορδο μπουζούκι...
Αποστολή από: nick30 στις Ιούνιος 08, 2010, 11:07:38 μμ
ΦΙΛΕ ΒΑΣΙΛΗ,ΝΑ ΘΥΜΑΣΑΙ ΟΤΙ ΟΛΟΙ ΟΙ ΑΓΑΠΗΜΕΝΟΙ ΜΑΣ ΔΕΝ ΦΕΥΓΟΥΝ ΠΟΤΕ.ΕΙΝΑΙ ΕΚΕΙ ΟΣΟ ΤΟΥΣ ΣΚΕΠΤΟΜΑΣΤΕ ΚΑΙ ΤΟΥΣ ΘΥΜΟΜΑΣΤΕ ΜΕ ΑΓΑΠΗ.ΘΑ ΤΟ ΚΑΤΑΛΑΒΕΙΣ ΑΥΤΟ ΜΕ ΤΟ ΚΑΙΡΟ.                              ΝΑ ΣΑΙ ΚΑΛΑ ΕΣΥ ΚΑΙ Η ΟΙΚΟΓΕΝΕΙΑ ΣΟΥ.


Τίτλος: Απ: Παρτιτούρες για Μπαγλαμά Τζουρά 3χορδο μπουζούκι...
Αποστολή από: marKiS στις Ιούνιος 09, 2010, 08:26:27 πμ
Τα συλληπητήρια και απο μένα φίλε μου


Τίτλος: Απ: Παρτιτούρες για Μπαγλαμά Τζουρά 3χορδο μπουζούκι...
Αποστολή από: kostas sinaplidis στις Ιούνιος 09, 2010, 08:02:12 μμ
Τα συλληπητήρια μου φίλε. Να’σε γερός!


Τίτλος: Απ: Παρτιτούρες για Μπαγλαμά Τζουρά 3χορδο μπουζούκι...
Αποστολή από: philipas στις Ιούνιος 10, 2010, 12:23:22 μμ
Τα συλληπητήρια και απο μενα φιλε μου.


Τίτλος: Απ: Παρτιτούρες για Μπαγλαμά Τζουρά 3χορδο μπουζούκι...
Αποστολή από: ΓΕΩΡΓΙΟΣ στις Ιούνιος 10, 2010, 02:00:57 μμ
ειμαι καινουργιοσ και παιζω μπούζουκι είμαι βέβαια αρχαριοσ θα ηθελα αν μπορείτε
σε ταμπλατουρα το τραγουδι αν το έχει κανένασ τα ματοκλαδα σου λάμπου.
 ευχαριστώ.


Τίτλος: Απ: Παρτιτούρες για Μπαγλαμά Τζουρά 3χορδο μπουζούκι...
Αποστολή από: hristos στις Ιούνιος 11, 2010, 06:34:30 μμ
Φίλε Γεώργιε την παρτιτούρα και την ταμπλατούρα του τραγουδιού << ΤΑ ΜΑΤΟΚΛΑΔΑ ΣΟΥ ΛΑΜΠΟΥΝ>> θα τη βρεις στο www.bouzouki-place.blogspot.com


Τίτλος: Τα ματόκλαδά σου λάμπουν (Μάρκος Βαμβακάρης, "Φράγκος")
Αποστολή από: ΜΑΚΗΣ στις Ιούνιος 11, 2010, 09:22:19 μμ
"ΤΑ ΜΑΤΟΚΛΑΔΑ ΣΟΥ ΛΑΜΠΟΥΝ"
                                      Μ.Β.

εισαγωγει
1η) 0-7-5-3-5-7-3-5--3-2-0--7--7--
2η) 0------------------------------
3η) 0--------------------------------

1η) 0-7-5-3-5-7-3-5--3-2-0--0--0--
2η) 0-------------------------0--0--
3η) 0-------------------------0---0-----

1η) 7-5-3-5-7-5-3-5-7-5-3-2-0--7--7--

1η) 7-5-3-5-7-5-3-5-7-5-3-2-0--0--0--


λογια
1η) 0-2-3-5--7-5-3-5-2--0--7--7--
2η) 0-------------------------
3η) 0-------------------------

1η) 0-2-3-5--7-5-3-5-2--0--0--0--
2η) 0-----------------------0--0
3η) 0-----------------------0--0

1η) 0-2-3-5--7-5-3-5-2--0--7--7--
2η) 0-----------------------------
3η) 0------------------------------

1η) 12--7-5-3-5-7-3-5--3-2-0--0--0--
2η) 0--------------------------0--0
3η) 0--------------------------0--0



www.youtube.com/watch?v=HJeB6zAsKx0


Τίτλος: Απ: Παρτιτούρες για Μπαγλαμά Τζουρά 3χορδο μπουζούκι...
Αποστολή από: ΓΕΩΡΓΙΟΣ στις Ιούνιος 12, 2010, 01:13:46 μμ
καλημέρα, παιδιά. σασ ευχαριστώ για το τραγούδι και για την άμεση απάντηση σασ και σε σένα χρήστο.
θα ήθελα κάποιοσ φίλοσ και αν είναι εφικτό για να βρούμε ένα τσιφτετελι σόλο σε ταμπλατούρα, διότι όπου έχω ψάξει
δεν έχω βρεί.το ξέρω οτι είναι δύσκολο αλλά όχι και αδύνατο για σασ γιατί κάποιοσ θα είναι πολλή πρωχορημένοσ
πάνω στο μπουζούκι και όχι σαν και μένα που είμαι αρχάριοσ.
βρήκα τσιφτετέλια αλλα να παίζουνε και όσο κοιτάζω απο τα χέρια για να το βγάλω δεν γίνεται τίποτα
το μόνο που κάνω είναι να με κουραζει. παλια είχατε και το τραγούδι  ΜΕΣΑ ΣΤΟΝ ΠΡΑΣΙΝΟ ΜΥΛΟ
και θα ήθελα να το μάθω αν το ξαναβάλεται  σασ ευχαριστω και πάλι


 


Τίτλος: Απ: Παρτιτούρες για Μπαγλαμά Τζουρά 3χορδο μπουζούκι...
Αποστολή από: *MadmaX* στις Ιούνιος 14, 2010, 12:52:08 πμ
Φίλε μου, αν είσαι αρχάριος, καλύτερα να ξεχάσεις τα σόλο τσιφτετέλια για κανένα χρόνο - και λίγο λέω. Είναι πολύ δύσκολο για έναν αρχάριο και την ταχύτητα να πιάσει και το ηχόχρωμα να δώσει. Μη βιάζεσαι. Όλα θα τα παίξεις σιγά-σιγά. Βαμβακάρης και Μπάτης, είναι μια χαρά για αρχή  :)


Τίτλος: Απ: Παρτιτούρες για Μπαγλαμά Τζουρά 3χορδο μπουζούκι...
Αποστολή από: χαρης στις Ιούνιος 14, 2010, 11:17:36 πμ


ξεκοληστε λιγακι με τις ταμπλατουρες και αφηστε την φαντασιωση σας να δουλεψει μην τα θελετε ολα ετοιμα.
σχεδον ολες οι ταμπλατουρες παντου στο ιντερνετ ειναι λειψες  και πολλες ειναι σε ασχετο τονο .

οταν προσπαθητε να βγαλετε ενα τραγουδι να ξεκινατε παντα απο τα λογια   και μετα να βγαζετε την εισαγωγη.
κατα 90%στα ρεμπετικα η εισαγωγη ειναι ιδια με τα λογια.




Τίτλος: Ο κομήτης του Χάλεϋ (Θανάσης Παπακωνσταντίνου)
Αποστολή από: υποβρύχιο στις Ιούνιος 14, 2010, 04:02:18 μμ
Ο κομήτης του Χάλευ στο περίπου


-7---7----9---12--11--9---6---7----7---3---4-----------7---5---4----5----9---7---11--9---11--14--12--
 τω-ρα  που   ο    κο-μη-της  χα - α    λε-υ             για  λι-γο     θα  πε   ρα  σει  δι -πλα'πτη  γη


-7---7---7---12--7---8----5---7---8---7---3----------------------------2---5---3---2---3----5--7---7
----------------------------------------------------------0---1---4-----------------------------------------
 α - νοι-ξε    το  πα-ρα   θυ    ρο--ο--ο  σου           κι ισως προ    λα-βου-με   να   φι-λη-θου-με

-5---3---2---0---------------0---
-----------------0---1---4-------
 ι - σως και κα-τι  πιο  πο - λυ



κάπως έτσι ειναι



αν μπορεί κανεις να γράψει το "να παμε για τη βούλα"....



www.youtube.com/watch?v=q04QLbOvleI


Τίτλος: Το μινόρε της αυγής (Σπ. Περιστέρης/Μ. Μάτσας - Μ. Βαμβακάρης & Α. Χατζηχρήστος)
Αποστολή από: ΜΑΚΗΣ στις Ιούνιος 14, 2010, 10:43:25 μμ
   Επειδή εμείς οι αρχάριοι θέλουμε κάτι εύκολο αλλά και καλό,(ας είναι και έτοιμο).

Για ώρες ευχάριστες, με φίλους, για ώρες πόνου και μοναξιάς,
αλλά και για ασύνετες ώρες...


                       ΤΟ ΜΙΝΟΡΕ ΤΗΣ ΑΥΓΗΣ

1η) 0--0--0--0--7--7---7-5-3-5--3-2---
2η) 0--0--0--0------------------------
3η) 0--0--0--0------------------------

1η) 5--5-7-8-12-11-12-7---

1η) 11-12-8-5--8-7-5-7--5-3---

1η) 7-5-3-5--3-2--2-3-5-7---

1η) 11-12-8-5--8-7-5-7--5-3---

1η) 7-5-3-5--3-2--5-3-2-0---



www.youtube.com/watch?v=LMGfDq39LVA


Τίτλος: Απ: Παρτιτούρες για Μπαγλαμά Τζουρά 3χορδο μπουζούκι...
Αποστολή από: Σωτήρης στις Ιούνιος 15, 2010, 10:00:44 πμ
Σωστός ο μάκης!
 Όποιος μπορεί ας ανεβάσει κάποιο απο αυτά τα τραγούδια σε ταμπλατούρα
"η ελένη η ζωντοχείρα"
"μισιρλού μου"
"Οτι άναψε θα σβήσει"
"Ηθελα να μουν Ηρακλής"
"καμηλιέρικο" (Μπάτης)
"Που να βρω γυναίκα να σου μοιάζει"
"Τίγρης"
Ωραία ιδέα θα ταν να ανέβαζε κανείς και τα "μπλουζ του πρίγκηπα" του Σιδηρόπουλου σε ταμπλατούρα για τρίχορδο


Τίτλος: Η Ελένη η ζωντοχήρα [2] (Γ. Εϊντζιρίδης, "Γιοβάν Τσαούς" - Αντώνης Καλυβόπουλος)
Αποστολή από: megasteve στις Ιούνιος 15, 2010, 10:58:20 πμ
αν κ "η ελενη η ζωντοχειρα" υπαρχει κ σε καποια απο τις παλαιοτερες σελιδες,την βαζω κ εγω μια λιγο διαφορετικη.

Εισαγωγη:

3--1-0-1--0--0----1-3-1-0-1---(0)-0-(0)---  
---------3------------------3--(0)----(0)---     Χ2 φορες
-------------------------------(0)----(0)------

5--3-1-3-0-1--0-1-3--3-5-3--5-0-1---(0)-0-(0)---
--------------3------------------3----(0)---(0)---  Χ 2 φορες
--------------------------------------(0)---(0)----

Λογια:

Η   Ελενη   η    ζωντοχει--------ρα  
(0)--------(7)-7-(7)-7-(7)----7------
(0)-8-10--(0)---(0)---(0)-10--8-10-
(0)----------------------------------

  Ντερτι   εχει η  κακομοι------ρα
(0)--------(7)-7--(7)--------------------
(0)-8-10--(0)----(0)-10--10-8-10-7-8
(0)------------------------------------------

Ένα γε---ρο αντρα ε----χει
(0)----------7-8--7------------
(0)-7-8--10-------10-8-7-5-7-
(0)-----------------------------------
*
Κι η καυμε----νη δεν αντε--χει
(0)-----0-2-5-2-3-0-2--(0)-0-0
(0)-2-3---------------5-(0)-----
(0)---------------------(0)---------

Κά-----θε με-ρ-αναστενα------ζει
(0)-------(7)-7-(7)-8-10-7-8---7--
(0)-8-10-(0)---(0)-----------10---8
(0)---------------------------------------

Απ το στο μα φλο γες βγα   ζει
(0)----7-8-7-10-7-8----7--------------
(0)-10---------------10--8--10-10-10
(0)------------------------------------------

**
    Νεα εί ναι δεν  ταιρια  ζει    
(0)-----0-2-3-5-7-8--5--3--(2)-0-2
(0)-2-3---------------------(0)----
(0)-------------------------(0)---------



   Γερος να την αγκα  λιαζει
(0)-----0-2-5-2-3-0-2--(0)-0-0
(0)-2-3---------------5-(0)-----
(0)---------------------(0)---------



www.youtube.com/watch?v=OUFkmV3CAcM


Τίτλος: Απ: Παρτιτούρες για Μπαγλαμά Τζουρά 3χορδο μπουζούκι...
Αποστολή από: Σωτήρης στις Ιούνιος 15, 2010, 11:12:48 πμ
Ευχαριστώ megasteve


Τίτλος: Απ: Παρτιτούρες για Μπαγλαμά Τζουρά 3χορδο μπουζούκι...
Αποστολή από: nikkortis στις Ιούνιος 15, 2010, 08:59:25 μμ
υποβρύχιο μπραβο ρε φιλε μιας και τρελενομαι για Θαναση... ποοολυ καλη προσπαθεια!


μπραβο και στα αλλα παιδια! για την προσπαθεια!

ΜΑΚΗΣ ειναι ωραιο και απλο!

megasteve  ας μπαινουνε και αλλες εκτελεσεις μπορει να αρεσουνε πιο πολυ, μπορει να ειναι πιο ευκολες!


παμε καλα!!!!!! ;D ;D ;D ;D


Τίτλος: Απ: Παρτιτούρες για Μπαγλαμά Τζουρά 3χορδο μπουζούκι...
Αποστολή από: marKiS στις Ιούνιος 15, 2010, 10:01:01 μμ
Μπράβο παιδιά. Μπορεί να κατεβάσει κανένας φίλος το- παλιό το πασαπόρτι του Μ.Λοιζου.η  το -Στου χαροκόπου και στην Καλλιθέα.( χιτζαζκιαρ,)


Τίτλος: Όλοι οι ρεμπέτες του ντουνιά [2] (Μάρκος Βαμβακάρης, "Φράγκος")
Αποστολή από: megasteve στις Ιούνιος 16, 2010, 01:30:21 πμ
οποτε φιλε nikkortis ας μου επιτραπει να βαλω ξανα το
"ολοι οι ρεμπετες του ντουνια" του Μαρκου αλλα απο την 1η εκτελεση  ;)

εκατσα κ το εβγαλα με τον μπαγλαμα νυχτιατικα για να μην με διωξουνε απο το σπιτι οι γειτονες με το μπουζουκι ;D ::)

Ολοι οι ρεμπετες του ντουνια

Εισαγωγη:

Α μερος εισαγωγης

|4|-4-7-5-4-3-4---|6|-7---7-
|0|----------------|0|---0---        Χ3
|0|----------------|0|--------

Το κλεισιμο του α μερους της εισαγωγης

|5|-4-3-2---|5|-4-3-2-0-2--|0|
|0|---------|0|-------------|0|     Χ1
|0|---------|0|-------------|0|

Β μερος εισαγωγης

|12|-12-|8|--8-|7|----------------|7|-7--------------|7|-7-|7|-7
|13|----|10|---|0|-10-8---7-8-10-|0|---10-8-7-8-10-|0|----|0|---
-----------------------------------------------------------------------

|12|-12-|8|--8-|7|----------------|7|-5-3-2-5-3-2-0---|0|
|13|----|10|---|0|-10-8---7-8-10-|0|----------------0-|0|
--------------------------------------------------------|0|

Λογια:

Ολοι ρεμπετες του ντουνια (γεμισμα..............................)
|0|-|3|-7-|5|-3--|2|-3--|0|--------7-6-7-6-------6-7-6-|0|
|0|-|0|----|0|---|0|----|0|-----------------8-7-8-------|0|
|0|-|0|----|0|---|0|----|0|-----------------------------|0|

Εμενα μ  αγαπου-νε   (γεμισμα ...............................)                        
|5|-|5|-7-6-12-|11|-8-|7|----------------6-7-------|0|
|0|-|0|---------|0|----|0|-8-7-5-4-5-7-8-----8-7-8-|0|
|0|-|0|---------|0|----|0|---------------------------|0|

Οπου κ αν μ αντικρ….........(γεμισμα..........................)
|8|-|5|-7-8-12-|11|-8-|7|-----------------------6-7
|0|-|0|----------| 0 |--|0|-8-7-5-4-5-7-8-7-8-----
|0|-|0|----------| 0 |--|0|---------------------------

Θυσια θα γενουνε (φιναλε ........................)                  
|2|-|3|-7-5-3-2-3-|0|-5-3-7-5-3-2-0---|0|
|0|-|0|------------|0|---------------0--|0|
|0|-|0|------------|0|------------------|0|

*μετα παιζουμε το β μερος της εισαγωγης κ ξεκιναμε  παλι τα λογια το επομενο στιχακι μεχρι να τελειωσει το τραγουδι.Αν θελουμε,στο τελος παιζουμε παλι την 1η εισαγωγη για επιλογο.ΑΚουστε κ το κομματι στην 1η εκτελεση από τον Μαρκο κ θα το βρειτε καλυτερα



www.youtube.com/watch?v=-K5D_lVMYDE


Τίτλος: Απ: Παρτιτούρες για Μπαγλαμά Τζουρά 3χορδο μπουζούκι...
Αποστολή από: nikkortis στις Ιούνιος 17, 2010, 07:16:40 μμ
megasteve ωραιος!!!!!!!!!!!!


Τίτλος: Απ: Παρτιτούρες για Μπαγλαμά Τζουρά 3χορδο μπουζούκι...
Αποστολή από: nikolios στις Ιούνιος 18, 2010, 02:00:59 μμ
Γεια χαρα και απο εμένα,
Παρακολουθω καμποσο καιρο την προσπαθεια αυτη η οποια με εχει βοηθησει παρα πολυ και επιτελους καταφερα να γινω και εγω μελος. Πολλα μπραβο σε οσους συμμετεχουν και προσπαθουν εδω οικειοθελώς.
Εγω θα ηθελα να ζητησω το ακολουθο τραγουδι αν ειναι δυνατο
-Τα παιδια της γειτονιας σου
Οποιος το ξερει και εχει χρόνο ας το ανεβάσει θα με βοηθουσε πολυ.
Ευχαριστω και ελπιζω να μπορεσω να συνεισφερω και εγω συντομα


Τίτλος: Τα παιδιά της γειτονιάς σου [1] (Παραδοσιακό Μικράς Ασίας - Μαρίκα Παπαγκίκα)
Αποστολή από: hristos στις Ιούνιος 19, 2010, 05:36:28 πμ
ΤΑ ΠΑΙΔΙΑ ΤΗΣ ΓΕΙΤΟΝΙΑΣ ΣΟΥ

ΕΙΣΑΓΩΓΗ
-----------9-10-9------------------------------------9-10-9-----------------------------
7-6-7-9-10-------11-10--11-10-9-7-9-10--7-6-7-9-10------11-10--11-10-9-10-11-10-9-7 (δις)
-----------------------------------------------------------------------------------------

                         ΛΟΓΙΑ
|6|-|6|-|6|-|6|------------------------------9--------------------------------------9--------
|7|-|7|-|7|-|7|--7-9-10--9-10-11-10-9-10-11---11-10--7-9-10--9-10-11-10-9-10-11---11-10
----------------------------------------------------------------------------------------------


-----------------------------------------------------------------------
11-11-10--9-7-9-10-9-7-9-10--7-9--11-11-10--9-7-9-10-9-7-9-10--9-7
-----------------------------------------------------------------------



www.youtube.com/watch?v=FL9rZ_YcFNw


Τίτλος: Απ: Παρτιτούρες για Μπαγλαμά Τζουρά 3χορδο μπουζούκι...
Αποστολή από: 3xordos στις Ιούνιος 19, 2010, 03:07:21 μμ
χαιρετω κ γω το τρομερο αυτο φορουμ
οφειλω να ευχαριστησω ολους οσους εκατσαν κ εγραψαν εστω κ 1 τραγουδι
εχω ψαξει παντου κ δε βρισκω πουθενα το "της γερακινας γιος" κ το "δεν εχω βγαλει το σχολειο".
αν θελεται μπορω να γραψω τη "φτωχογειτονια" κ το "νυχτωσε χωρις φεγγαρι"


Τίτλος: Απ: Παρτιτούρες για Μπαγλαμά Τζουρά 3χορδο μπουζούκι...
Αποστολή από: Σωτήρης στις Ιούνιος 19, 2010, 04:51:20 μμ
Γεια χαρα σου τρίχορδε! Εννοείται οτι θέλουμε να μας τα γράψεις. Αντε περιμένουμε να τ ανεβάσεις...


Τίτλος: Απ: Παρτιτούρες για Μπαγλαμά Τζουρά 3χορδο μπουζούκι...
Αποστολή από: nick30 στις Ιούνιος 19, 2010, 10:27:52 μμ
φιλε ΤΡΙΧΟΡΔΕ αργεις.Της ''γερακινας γιος'' επρεπε να ηταν κιολας ανεβασμενο.
Ευχαριστηρια εκ των προτερων.


Τίτλος: Τα παιδιά της γειτονιάς σου [2] (Παραδοσιακό Μικράς Ασίας - Μαρίκα Παπαγκίκα)
Αποστολή από: *MadmaX* στις Ιούνιος 19, 2010, 10:37:05 μμ
Mια άλλη εκδοχή του τραγουδιού "Τα παιδιά της γειτονιάς σου" - παιγμένη σε άλλο τόνο - που ανέβασε ο συμφορουμίτης hristos. Διαλέγετε και παίρνετε αυτή που σας κάθεται καλύτερα...

Τα παιδιά της γειτονιάς σου
Παραδοσιακό Σμύρνης

Εισαγωγή

--5-4-5-7-8-12-10-8-7-6—3-2-3-5-2-0-
----------------------------------------    }δύο φορές
----------------------------------------

Τραγούδι

-0-2-3-2-3-4-3-2-3-4-7-4-3-3-3-3-3-3
------------------------------------------------  }δύο φορές
-----------------------------------------------

4-2-3-4-3-4-3-2-0-2-3-2-3-3-3-3-3
------------------------------------
------------------------------------

4-4-4-4-2-3-4-3-2-0-2-3-2-0----0---0-----
-----------------------------------0----0---
--------------------------------------------



www.youtube.com/watch?v=FL9rZ_YcFNw


Τίτλος: Απ: Παρτιτούρες για Μπαγλαμά Τζουρά 3χορδο μπουζούκι...
Αποστολή από: 3xordos στις Ιούνιος 21, 2010, 12:49:38 πμ
προφανως παρεξηγηθηκα
το "γερακινας γιος" κ το "δεν εχω βγαλει το σχολειο" τα ψαχνω κ εγω
τα αλλα 2 κ διαφορα αλλα απο αυριο 8α τα γραψω


Τίτλος: Απ: Παρτιτούρες για Μπαγλαμά Τζουρά 3χορδο μπουζούκι...
Αποστολή από: matzore στις Ιούνιος 21, 2010, 02:21:52 πμ
tis getrakinas gios to exo zitisi kai ego palia


Τίτλος: Βρέχει στη φτωχογειτονιά (Μ. Θεοδωράκης/Τ. Λειβαδίτης - Γρηγόρης Μπιθικώτσης)
Αποστολή από: 3xordos στις Ιούνιος 21, 2010, 03:35:22 μμ
βρεχει στη φωτογειτονια(μ.θεοδωρακης)


Εισαγωγη

13*--13--1313--13--12--10--8*--10*--8-10-12*   (X)
 13--12--10--8*---5-7-8-10-10--8-7-5*         (2)

logia

0*-----5*----5-3---3-1--1-0*
0*-----5*----5-3---3-7--8-10-5*

8*----7*----7-5--5-3--1-0*
8*----7*----7-8-10-12-8-7-5*   7*-578*-7*5*3*

8*----7*----7-5--5-3--1-0*
8*----7*----7-8-10-12-8-7-5*

gemisma
8*-----7*----7-8-10-10-8-7-5*

3-8*--7-10-10--8-7-5*-3-8-7-5*
3-8*--12-10-12-8-7-5*

13*--13--1313--13--12--10--8*--10*--8-10-12    8-10-12  (X)
 13--12--10--8*---5-7-8-10-10--8-7-5*         (2)



www.youtube.com/watch?v=WVpKC9vbpoE


Τίτλος: Απ: Παρτιτούρες για Μπαγλαμά Τζουρά 3χορδο μπουζούκι...
Αποστολή από: georgeee στις Ιούνιος 21, 2010, 05:59:49 μμ
an mporei kapios re mages  na valei to " Adinatisa O Kaimenos - A. Kostis:


http://www.youtube.com/watch?v=KAp01GgsoLk


kai to ka8e vrady tha se perimeno (Alaniara ap'ton Peraia) apo Marko


euxaristw ade pame ligo giati teleutaia re alania pesame!!




Τίτλος: Απ: Παρτιτούρες για Μπαγλαμά Τζουρά 3χορδο μπουζούκι...
Αποστολή από: Σωτήρης στις Ιούνιος 21, 2010, 07:23:56 μμ
Μπραβο ρε τρίχορδε... (τι είναι τα * που έβαλες?)  Περιμένουμε και το νύχτωσε χωρις φεγγάρι!


Τίτλος: Απ: Παρτιτούρες για Μπαγλαμά Τζουρά 3χορδο μπουζούκι...
Αποστολή από: 3xordos στις Ιούνιος 21, 2010, 08:47:28 μμ
Μπραβο ρε τρίχορδε... (τι είναι τα * που έβαλες?)  Περιμένουμε και το νύχτωσε χωρις φεγγάρι!

συνεχομενο παιξιμο


Τίτλος: Απ: Παρτιτούρες για Μπαγλαμά Τζουρά 3χορδο μπουζούκι...
Αποστολή από: ΜΑΚΗΣ στις Ιούνιος 21, 2010, 11:02:51 μμ
georgeee δες σελιδα 31


Τίτλος: Ήτανε μια φορά (Σταύρος Ξαρχάκος/Κώστας Φέρρης - Νίκος Ξυλούρης)
Αποστολή από: Lelis Gougounis στις Ιούνιος 22, 2010, 02:02:59 πμ
Φιλε ΘΟΔΩΡΗΣ μας ειχες υποσχεθει AΣΙΜΟ! Τι απεγινες; Για να ανεβαζουμε κανα τραγουδακι του ρε παιδια, εγω δεν μπορω να βγαλω δυστυχως τιποτα. Προσφατα όμως εβγαλα το ΗΤΑΝΕ ΜΙΑ ΦΟΡΑ αν και καλυτερα παιζεται πιστευω σε κιθαρα με ακκορντα. Αnyway μπορειτε να συνοδεψετε με τη μελωδια, που νομιζω ειναι καπως ετσι, διανθιστε το με τις φωνουλες σας και με κανα παραπανω ακκορντο (ρε μινορε και ντο ματζορε παιζουν)

((0))--((0))-7-7-(10)-(10)-10--(10)-((10))--((10))--(7)--(10)--((0)&(8 )&7--
Ητανε μια φορα, ματια μου κι εναν καιρο
((0))--((0))-7-7-(10)-(10)-10--(10)-(7)-((10))--((10))--(7)--(10)--((0)&(8 )&7--
μια ομορφη κυρα, άρχοντισσα να σε χαρω
12--7-12-10-8-10--(10)--10--(10)--10-12-12          x2
μια μικροπαντρεμενη, κορη ξανθη
τον κυρη της προσμενει, βραδυ πρωι



www.youtube.com/watch?v=y29UbTGjI6k


Τίτλος: Απ: Παρτιτούρες για Μπαγλαμά Τζουρά 3χορδο μπουζούκι...
Αποστολή από: nikolios στις Ιούνιος 22, 2010, 02:05:56 μμ
Ευχαριστω πολυ τον hristos και τον madmax για το τραγούδι "Τα παιδια της γειτονιάς σου"
Το εψαχνα καιρο και δεν τον εβρισκα.
Να στε καλα παιδια!


Τίτλος: Απ: Παρτιτούρες για Μπαγλαμά Τζουρά 3χορδο μπουζούκι...
Αποστολή από: georgeee στις Ιούνιος 22, 2010, 11:26:01 μμ
euxaristw makhs den to eixa prose3ei na stai oloi kala...

adunatisa o kaimenos opios mporei  na valei ..sugnwmh an zhtaw polla alla exw 4 mhnes pou arxisa kai apo edw ma8enw.. vlepetai xrhmata gia na paw se daskalo  den exw.....


Τίτλος: Απ: Παρτιτούρες για Μπαγλαμά Τζουρά 3χορδο μπουζούκι...
Αποστολή από: megasteve στις Ιούνιος 23, 2010, 12:18:35 πμ
Μαγκες οταν θα εχω χρονο ,να βαλω την γυφτοπουλα απο την 1η εκτελεση του Μπατη;;;


 


Τίτλος: Απ: Παρτιτούρες για Μπαγλαμά Τζουρά 3χορδο μπουζούκι...
Αποστολή από: alterna στις Ιούνιος 23, 2010, 01:58:13 μμ
Eννοείται megasteve..Περιμένουμε..


Τίτλος: Γυφτοπούλα στο χαμάμ [2] (Γιώργος Μπάτης, "Αμπάτης")
Αποστολή από: megasteve στις Ιούνιος 23, 2010, 05:32:02 μμ
Σε μπαγλαμα ακουγεται τρομερο!!!
Αν το παιξετε απο πανω απο το κομματι κ το ακουτε να ειναι σε διαφορετικο τονο ειναι
γιατι ο Μπατης τον μπαγλαμα του τον κουρδιζε στα περισσοτερα κομματια  ΣΙ,ΣΙ,Σι ;) (ενα απο τα λεγομενα ντουζενια)κ οχι ΡΕ,ΛΑ,Ρε οπως παιζουμε εμεις συνηθως.Υπαρχουν κ αλλα κουρδισματα που χρησιμοποιουσαν πολυ βασικα κ κανονικα θα επρεπε να κουρδιζουμε κ εμεις ετσι για να παιζουμε τα κομματια τους διαφορετικα μπορει να παιζουμε το ιδιο κομματι αλλα στην ουσια ειναι κατι αλλο κ οχι το πραγματικο.... :(


Γιωργος Μπατης 1934 "Γυφτοπουλα"

Εισαγωγη:

|3|-5-|7|-9-|10|-12-|7|-7-7
|0|---|0|----| 0 |----|0|-----
|0|---|0|----| 0 |----|0|-----

|5|-3-|2|-0-|2|-3-|5|-5-5
|0|---|0|---|0|---|0|-----
|0|---|0|---|0|---|0|-----

|3|-5-|7|-9-|10|-12-|7|-7-7
|0|---|0|----| 0 |---|0|-----
|0|---|0|----| 0 |---|0|-----

|5|-3-|2-0-|2|-3-|0|-0--
|0|---|0|---|0|---|0|---3
|0|---|0|---|0|---|0|-----

|3|-3-|3|-3-|3|-3-|3|-2--
|0|---|0|----|0|---|0|---3
|0|---|0|----|0|---|0|-----

--2-|2|-2-|2|-2-|2|-2--
3---|0|---|0|----|0|---3
----|0|---|0|----|0|-----

|0|-2--3-|2|----|0|-0-2
|0|--3----|0|-3-|0|------
|0|-------|0|----|0|------

|3|-3-|3|-3-|3|-3-|3|-2--
|0|---|0|----|0|---|0|---3
|0|---|0|----|0|---|0|-----

--2-|2|-2-|2|-2-|2|-2--
3---|0|---|0|----|0|---3
----|0|---|0|----|0|-----

|0|-2--3-|2|----|0|-0--
|0|--3---|0|-3--|0|---3
|0|------|0|----|0|----

Λογια :

Γυφτοπ. Στο χαμαμ κι ε΄
|7|-5-|7|-9-|10|-12-|7|-7-7
|0|---|0|---| 0 |----|0|-----
|0|---|0|---| 0 |----|0|-----



γω πλη ρω νω μπιρ τα μαμ
   |7|-3-|2|-0-|2|-3-|5|-5-5
   |0|---|0|----|0|---|0|
   |0|---|0|----|0|---|0|

   |3|-5-|7|-9-|10|-12-|7|-7-7
   |0|---|0|----| 0 |---|0|-----
   |0|---|0|----| 0 |---|0|-----

   |5|-3-|2-0-|2|-3-|0|-0--
   |0|---|0|---|0|---|0|---3
   |0|---|0|---|0|---|0|-----

Για να μπεις να κανεις μπανιο
|3|-3-|3|-3-|3|-3-|3|-2--
|0|---|0|----|0|---|0|---3
|0|---|0|----|0|---|0|-----

Να μην πεσω κι αποθανω
--2-|2|-2-|2|-2-|2|-2--
3---|0|---|0|----|0|---3
----|0|---|0|----|0|-----

Τσιμπι ριμπι γιαλα
|0|-2--3-|2|----|0|-0-2
|0|--3----|0|-3-|0|------
|0|-------|0|---|0|------


|3|-3-|3|-3-|3|-3-|3|-2--
|0|---|0|----|0|---|0|---3
|0|---|0|----|0|---|0|-----

--2-|2|-2-|2|-2-|2|-2--
3---|0|---|0|----|0|---3
----|0|---|0|----|0|-----

|0|-2--3-|2|----|0|-0--
|0|--3----|0|-3-|0|---3
|0|-------|0|----|0|----

2ο μερος λογια

Όταν βαλεις το τσεμπερι
|7|-5-|7|-9-|10|-12-|7|-7-7
|0|---|0|----| 0 |----|0|-----
|0|---|0|----| 0 |----|0|-----

Το λελουδι στο αυτι
   |7|-3-|2|-0-|2|-3-|5|-5-5
   |0|---|0|----|0|---|0|
   |0|---|0|----|0|---|0|

Το τσιγαρο εις το χερι
   |3|-5-|7|-9-|10|-12-|7|-7-7
   |0|---|0|----| 0 |----|0|-----
   |0|---|0|----| 0 |----|0|-----

Κ στα κεντρα περπατεις
   |5|-3-|2-0-|2|-3-|0|-0--
   |0|---|0|---|0|---|0|---3
   |0|---|0|---|0|---|0|-----

|3|-5-|7|-9-|10|-12-|7|-7-7
|0|---|0|----| 0 |----|0|-----
|0|---|0|----| 0 |----|0|-----

|5|-3-|2-0-|2|-3-|5|-5-5
|0|---|0|---|0|---|0|-----
|0|---|0|---|0|---|0|-----

|3|-5-|7|-9-|10|-12-|7|-7-7
|0|---|0|----| 0 |----|0|-----
|0|---|0|----| 0 |----|0|-----

|5|-3-|2-0-|2|-3-|0|-0--
|0|---|0|---|0|---|0|---3
|0|---|0|---|0|---|0|-----

Να χαρεις τις 2 κοτσιδες
|3|-3-|3|-3-|3|-3-|3|-2-2
|0|---|0|----|0|---|0|---
|0|---|0|----|0|---|0|-----
Το φουστανι το μακρυ
|2|-2-|2|-2-|2|-2-|2|-2--
|0|---|0|----|0|---|0|---3
|0|---|0|----|0|---|0|----
Τ΄αψηλο σου το τακουνι
|3|-3-|3|-3-|3|-3-|3|-2-2
|0|---|0|----|0|---|0|---
|0|---|0|----|0|---|0|-----
Περπατας κ τρεμει η γη
|2|-2-|2|-2-|2|-2-|2|-2--
|0|---|0|----|0|---|0|---3
|0|---|0|----|0|---|0|----


απο εδω

www.youtube.com/watch?v=shK4H2D7Avs

καλες πενιες!




Τίτλος: Απ: Παρτιτούρες για Μπαγλαμά Τζουρά 3χορδο μπουζούκι...
Αποστολή από: Σωτήρης στις Ιούνιος 24, 2010, 10:36:22 πμ
Ωραιος ρε ΜΠΡΑΒΟ. Πολυ καλη δουλεια


Τίτλος: Νύχτωσε χωρίς φεγγάρι [2] (Απόστολος Καλδάρας - Στέλλα Χασκίλ)
Αποστολή από: 3xordos στις Ιούνιος 24, 2010, 04:20:10 μμ
Νυχτωσε χωρις φεγγαρι

10*-12---10-12-13-12-10-8-7-5-4-(6)-(5)
10-12---10-12-13-12-10--8-7-4--(6)-(5)-(6)-4-5-7
(3)-(5)-(6)-4-5-7-8-10-12-13-12-10-8-7-8-10-8-7-5-4-5-7-5-4-(6)-(5)-(5)-4-5-754-54(6)-(5)(5)--4-5-6-

logia
nyyyyy     xtoo    see           xoris    fegaa
7-4-(6)---(5)-4--(6)-(6)-(5)-(3)-(6)-(5)-(5)-4-5-754-54(6)-(5)(5)--

tooooo skoootadi  einai vathi                                  ooomooossssss     ena palikariiiiiiiiiiiiiiiiiiiiiiiiiiiiiiiiiiiiiiiii
0*-----8*---7--5---4--5--7 --(5)(4)(5)(6)--4-5-7--8*-10-8-7-(10)--7-7-8-10-12-12-13-12-10-(13)-(12)-(10)

den  nnnnn     mpoo   riii       na koim i83iiii
(12)-(9)-(6)--(5)-4--(6)-(6)-(5)-(3)-(6)-(5)--

                             omos..
(5)(4)(5)(6)--4-5-7--8*-10-8-7-(10)--7-7-8-10-12-12-13-12-10-(13)-(12)-(10)

de  
(12)-(9)-(6)--(5)-4--(6)-(6)-(5)-(3)-(6)-(5)----12-10-8-7-5-4-(6)-(5)................



www.youtube.com/watch?v=mldi3_rwAM0


Τίτλος: Δώδεκα χρονώ κορίτσι (Πάνος Γαβαλάς - Ρίτα Αμπατζή)
Αποστολή από: alterna στις Ιούνιος 24, 2010, 09:20:40 μμ
Μάγκες βάζω ένα γαμάτο κομμάτι που γουστάρω πάρα πολύ..

Δώδεκα χρονώ κορίτσι
Στίχοι-Μουσική:Σωτήρης Γαβαλάς


Εισαγωγή:

---9---7----9----5-----3---2---0-----2-----5---2----3---0----2-----3----5----7-----9


---9---7----9----5-----3---2---0----2------5---2----3---0----2           Δις


Λόγια:

----9---9---10--12--9---9---7---7---5---7---9---7---5---3---2

----9---9---10---12---9---9---7---5---9---9---7

Άιντε δώδεκα χρονώ κορίτσι .. Άιντε χήρα πάει στην μάνα του


----9---9---10---12---9---9---7---7---5---7---9---7---5---3---2

---3---3---3---2---3---5---7---5---3---2---2

Άιντε τα στεφάνια στην ποδιά του…. κι έκλαιγε τον άντρα του

---3---2---3---5---7---5---3---2---2---3---5---7---9

---3---2---3---5---7---5---3---2---2

Σώπα κόρη μου μην κλαίγεις.. και ξαναπαντρεύεσαι

---3---2---3---5---7---5---3---2---2---3---5---7---9

---3---2---3---5---7---5---3---2---2

Και τα μαύρα θα πετάξεις…και  ξελευτερώνεσαι


Μπορείτε να το ακούσετε εδώ..

http://www.youtube.com/watch?v=fMPjyJzOZg4

Ο τύπος το τραγουδάει απίστευτα!!




www.youtube.com/watch?v=G7YQrWE7b0w


Τίτλος: Απ: Παρτιτούρες για Μπαγλαμά Τζουρά 3χορδο μπουζούκι...
Αποστολή από: nikkortis στις Ιούνιος 24, 2010, 10:07:25 μμ
α ρε παιδες!!!! χωρις εσας τι θα καναμε!!!! μπραβο ρε ... ανεβαστε πραγμα να εχουμε να ελπιζουμε!!!!! να παιζουμε μπουζουκακι να ξεχνιομαστε!


alterna μερακλωσα ρε φιλε!!!! κομματαρα!!!!! και στο video τα παιδια το παιζουνε αψογα!!!!!


Τίτλος: Απ: Παρτιτούρες για Μπαγλαμά Τζουρά 3χορδο μπουζούκι...
Αποστολή από: nick30 στις Ιούνιος 26, 2010, 10:47:21 μμ
ΞΕΡΕΙ ΚΑΝΕΙΣ ΡΕ ΜΑΓΚΕΣ "ΤΑ ΝΕΙΑΤΑ ΤΑ ΜΠΕΡΜΠΑΤΙΚΑ" ΤΟΥ ΤΣΙΤΣΑΝΗ ΚΑΙ ΤΑ "ΣΦΑΛΜΑΤΑ"ΤΟΥ
ΠΑΠΑΙΩΑΝΝΟΥ ΝΑ ΤΑ ΑΝΕΒΑΣΕΙ.ΕΙΝΑΙ ΤΡΟΜΕΡΑ ΤΡΑΓΟΥΔΙΑ.


Τίτλος: Απ: Παρτιτούρες για Μπαγλαμά Τζουρά 3χορδο μπουζούκι...
Αποστολή από: legna στις Ιούνιος 27, 2010, 07:25:01 πμ
γεια και χαρα φιλοι ρεμπετες. εχω να πω οτι απο αυτο το φορουμ εμαθα τζουρα, και να στε καλα που το ξεκινησατε και το γεμιζετε με καινουρια πραματα, ειδικα για εμας τους απειρους.αν ξερει κανενας τον ακροβατη και τ'ανεβασει θα ειμαι ευγνωμων. καλη συνεχεια σ' ολους μας  :D και καλες πενιες


Τίτλος: Απ: Παρτιτούρες για Μπαγλαμά Τζουρά 3χορδο μπουζούκι...
Αποστολή από: *MadmaX* στις Ιούνιος 27, 2010, 12:10:18 μμ
Alterna, έγραψες! Πολύ ωραίο τραγούδι, και βγαίνει πολύ σωστά. Ο τύπος που τραγουδάει, είναι ο fotaras007, ένα από τα καλύτερα νέα τρίχορδα που υπάρχουν και με πολύ σωστή φωνή. ΄Εχει ανεβάσει αρκετό πράμα στο youtube κάντε έναν κόπο να τον ακούσετε, αξίζει...


Τίτλος: Απ: Παρτιτούρες για Μπαγλαμά Τζουρά 3χορδο μπουζούκι...
Αποστολή από: Katadikos στις Ιούνιος 27, 2010, 11:46:09 μμ
euxaristw makhs den to eixa prose3ei na stai oloi kala...

adunatisa o kaimenos opios mporei  na valei ..sugnwmh an zhtaw polla alla exw 4 mhnes pou arxisa kai apo edw ma8enw.. vlepetai xrhmata gia na paw se daskalo  den exw.....

to exw vgalei file auto..



Τίτλος: Απ: Παρτιτούρες για Μπαγλαμά Τζουρά 3χορδο μπουζούκι...
Αποστολή από: Σωτήρης στις Ιούνιος 28, 2010, 11:32:29 πμ
Άντε ανέβασέ το


Τίτλος: Απ: Παρτιτούρες για Μπαγλαμά Τζουρά 3χορδο μπουζούκι...
Αποστολή από: ΘΟΔΩΡΗΣ στις Ιούνιος 28, 2010, 05:33:44 μμ
Φίλε leli έχεις δίκιο λόγω υποχρεώσεων χάθηκα γιατί δεν είμαι πολύ σπίτι.....από άσιμο έρχονται εντός ημερών ''εγώ με τις ιδέες μου'',''παράτα τα'',''δωμάτιο στο Άμστερνταμ'' και από Χαίνηδες η ''τίγρη'' που την λέμε καιρό και ο ''ακροβάτης'' που ζήτησε ένας φίλος.


Τίτλος: Απ: Παρτιτούρες για Μπαγλαμά Τζουρά 3χορδο μπουζούκι...
Αποστολή από: 3xordos στις Ιούνιος 28, 2010, 06:53:09 μμ
ωραιος ρε φιλε
"παρατα τα" κ "γω με τις ιδεες μου" ειναι κομματαρες
ανυπομονουμε


Τίτλος: Απ: Παρτιτούρες για Μπαγλαμά Τζουρά 3χορδο μπουζούκι...
Αποστολή από: georgeee στις Ιούνιος 30, 2010, 08:24:01 μμ
to exw 3anazuthseia alla to thelw polu ...to adynatissa o kaimenos apo Kosti kai to ΠΕΙΣΜΑΤΑΡΑ apo  ΜΑΡΚΟ


opios mporei as ta velei euxaristw
 


Τίτλος: Απ: Παρτιτούρες για Μπαγλαμά Τζουρά 3χορδο μπουζούκι...
Αποστολή από: marKiS στις Ιούνιος 30, 2010, 11:28:40 μμ
fragosiriani exoume?


Τίτλος: Απ: Παρτιτούρες για Μπαγλαμά Τζουρά 3χορδο μπουζούκι...
Αποστολή από: Katadikos στις Ιούλιος 01, 2010, 02:23:57 πμ
re magkes kante ligo ypomoni na to grapsw kai tha to anevasw..
mexri tote akouste to kai peite ligo entypwseis

http://www.mediafire.com/?mxmmjymmukm




Τίτλος: Απ: Παρτιτούρες για Μπαγλαμά Τζουρά 3χορδο μπουζούκι...
Αποστολή από: hristos στις Ιούλιος 01, 2010, 07:12:30 πμ
Παιδιά ξέρει κανείς το παραδοσιακό < ΠΗΓΑ ΚΑΙ ΣΟΥ ΠΑΡΗΓΓΕΙΛΑ ΣΤΗΝ ΠΟΛΗ ΤΑ ΠΡΥΚΙΑ ΣΟΥ ΣΤΗ ΒΕΝΕΤΙΑ ΤΑ ΡΟΥΧΑ ΣΟΥ ΚΑΙ ΤΑ ΔΙΑΜΑΝΤΙΚΑ ΣΟΥ...> ? Φίλε Markis η φραγκοσυριανή υπάρχει στην αρχή.


Τίτλος: Απ: Παρτιτούρες για Μπαγλαμά Τζουρά 3χορδο μπουζούκι...
Αποστολή από: alterna στις Ιούλιος 01, 2010, 06:04:27 μμ
re magkes kante ligo ypomoni na to grapsw kai tha to anevasw..
mexri tote akouste to kai peite ligo entypwseis

http://www.mediafire.com/?mxmmjymmukm




katadike πολύ καλό..
Περιμένουμε να το ανεβάσεις..


Τίτλος: Απ: Παρτιτούρες για Μπαγλαμά Τζουρά 3χορδο μπουζούκι...
Αποστολή από: Christos Krestas στις Ιούλιος 03, 2010, 04:12:39 μμ
re magkes kante ligo ypomoni na to grapsw kai tha to anevasw..
mexri tote akouste to kai peite ligo entypwseis

http://www.mediafire.com/?mxmmjymmukm



Kalispera sas. :)

Eimai kainourgios sto foroum kai asxoloumai xronia me to mpouzouki monos mou (apo psonio).  Tha ithela na anevasw kai egw tamplatoures me ton tropo sas alla se mia apopira pou ekana idi gia tin Proussa (i alliws Hrwini kai Mavraki) i phraseis mou bgainoun megales se mikos kai den kserw ean tha diavazontai kala otan tis anevasw.  Etsi skeftika mipws kanw kati lathos.  Apo tin alli iparxei dinatotita anevasmatos word doc, opou tha fainontai pio kala?

Efxaristw   ;D

katadike πολύ καλό..
Περιμένουμε να το ανεβάσεις..


Τίτλος: Η τίγρη (Δημήτρης Αποστολάκης - Ψαραντώνης)
Αποστολή από: ΘΟΔΩΡΗΣ στις Ιούλιος 03, 2010, 06:12:48 μμ
Dinw patimata apo ''tigri'' pou to zitane polloi edw kai kairo...ta grafw apla isa isa na vgainei kapws i melwdia apo kei k pera k gw alla k o kathenas mporei na to emploutisei me trillies,sugxordies,glistrimata ktl opws thelei..i kithara an sunodeuei to paizei apo re..episis aplousteumena vazw kai to 'parata ta' apo asimo apo katw pou sunodeuetai episis apo kithara ap re kai la.

''TIGRI''

Intro
7-7-7-7-5-3-2-0-0-2-3-5-7-5-5-3-5-5-5-3-5-7-5-3-2-0-2-3-2-0-0--2-3-2-3-3--2-3-2-3-3--2-3-2-3-3-0--0--
0------------------------------------------------------------------------------------------------------5--5-
0----------------------------------------------------------------------------------------------------------


Logia
-0-2-3-5-7-5-5-3-5---5-5-5-3-5-7-5---5-5-5-2-3-2-0-2-5-3-2-0-5-5-5-5----12-12-12-12-10-8-7-5---------
----------------------------------------------------------------------------------------------------------
------------------------------------------------------------------------------------------------------------


-10-10-10-10-8-7-5-------5-5-5-5-2-3-2-0-2-3-5-2-0---0---0----
------------------------------------------------------5---5----5--
------------------------------------------------------------------



www.youtube.com/watch?v=heWLnEDzkkE


Τίτλος: Παράτα τα [μελωδία] (Νικόλας Άσιμος)
Αποστολή από: ΘΟΔΩΡΗΣ στις Ιούλιος 03, 2010, 06:23:16 μμ
''parata ta'' - n.asimos  (to vazw episis aplousteumena gia ti melwdia,o kathenas as to emploutisei me gurismata,gemismata,sugxordies opws krinei panw se auto)

--0-0-0-3-2-7-7-5-7-5-7-7-5-3-5-3-2-0--
0-----------------------------------------      (x2)
------------------------------------------



--7-7-5-3-0-2-2-----0-2-2-3-2-3-5-7-7-7
-----------------------------------------
-----------------------------------------


--7-7-5-3-0-2-2----0-2-2-3-2-0-----0
----------------------------------4---
--------------------------------------



www.youtube.com/watch?v=lZqKAv6zmLc


Τίτλος: Απ: Παρτιτούρες για Μπαγλαμά Τζουρά 3χορδο μπουζούκι...
Αποστολή από: legna στις Ιούλιος 04, 2010, 09:10:03 μμ
fragosiriani exoume?

markis πάνε στην πρώτη σελιδα, εκεί είναι.


Τίτλος: Ηρωίνη και μαυράκι (Προύσσα) [2] (Σωτήρης Γαβαλάς - Στελλάκης Περπινιάδης)
Αποστολή από: Christos Krestas στις Ιούλιος 04, 2010, 09:18:48 μμ
Με τη σειρά μου και εγω σαν καινουργιος να συνεισφέρω κάτι.  Ευπρόσδεκτες προτάσεις για εμπλουτισμό. ;D

ΠΡΟΥΣΣΑ (ΗΡΩΙΝΗ και ΜΑΥΡΑΚΙ)
(ΡΕ)
ΕΙΣΑΓΩΓΗ
-9--10-9-7-6------ (0)-----------------------6-7 -
----(0)---------8-7-5--8-8-7-5-4-5-5-7-8-----8
----(0)-------------(0)-------------------------(0)

-9--10-9-7-6- (7)---(0)------------(0)-------------
----(0)---------8--7--5-8-8-7-5-4--5---------------
----(0)--------(0)---(0)------------(0)-------------

-9--10-9-7-6------ (0)-----------------------6-7 -
----(0)---------8-7-5--8-8-7-5-4-5-5-7-8-----8
----(0)-------------(0)-------------------------(0)

-9--10-9-7-6--(7)---(0)-------------(0)--(0)------------
----(0)---------8--7--5--8-8-7-5-4-- 5---5-------------
----(0)--------(0)---(0)------------- (0)--(0)-----------

ΛΟΓΙΑ
Να       ξεφύγω     δεν       μπορούσα -  
-12-11-12-14-15-14-12-11-12-12-12--
----------------------------------------------
----------------------------------------------
Σαν    εγύρισα          απ        την         Προύσα
12-11-12-14-11-{8-11}-{8-11}-{7-8}-{7-8}-7
-----------------------------------------------------
-----------------------------------------------------

Με            στρι μώξαν      κάτι             μπράβοι  
[5-8]-8-8-8--11-{7-8}-{7-8}-{7-8}-6-7-6---------
-------------------------------------------------- 7-8-5-
----------------------------------------------------------

Και   με    πιάσαν   στο        καράβι
--------------------------------------6-7----------------
[5-8]-8-8-8-8-7-7-5-5-4-5-7-8----------------------
----------------------------------------------------------

Με            στρι μώξαν      κάτι                μαυροι  
[5-8]-8-8-8--11-{7-8}-{7-8}-{7-8}-6-7-6---------
-------------------------------------------------- 7-8-5-
----------------------------------------------------------

Και   με     πιασαν        στο        καράβι
15-15-15-15-15-14-14-12-12-11-12-12
-----------------------------------------------
------------------------------------------------

Σημειώσεις:
•   Το νούμερο σημαίνει αριθμό τάστου από πάνω προς τα κάτω στο «μανίκι»
•   Το (0) σημαίνει χτύπημα ανοικτής χορδής
•   Όταν εμφανίζονται καθέτως τρία χτυπήματα στην ίδια στήλη πρόκειται για χτύπημα και στις τρεις χορδές με μια πενιά
•   Το κάθε πινακάκι έχει τις τρεις χορδές του μπουζουκιού – η πρώτη γραμμή από πάνω είναι η Ρε η ψιλή δηλαδή η πρώτη χορδή από κάτω προς τα πάνω στο «μανίκι»
•   {  } σημαίνει αντίλαλο  (αυτό υπό αίρεση υπόκειται στη διακριτική ευχέρεια του καθενός και στη δεξιοτεχνία του)

•   [   ] σημαίνει γλίστρημα από το ένα τάστο στο άλλο (αυτό υπό αίρεση υπόκειται στη διακριτική ευχέρεια του καθενός και στη δεξιοτεχνία του)



www.youtube.com/watch?v=gDtt3kM6ywU


Τίτλος: Απ: Παρτιτούρες για Μπαγλαμά Τζουρά 3χορδο μπουζούκι...
Αποστολή από: megasteve στις Ιούλιος 05, 2010, 03:09:51 μμ
πολυ καλο το "προυσα" Μπραβο!!!!
Μπορει καποιος να βαλει το "Ενας μαγκας στον τεκε μου" του Κωστα Τζοβενου;
ειναι αυτο:
http://www.youtube.com/watch?v=Bxe9osmXAbI


Τίτλος: Απ: Παρτιτούρες για Μπαγλαμά Τζουρά 3χορδο μπουζούκι...
Αποστολή από: thodoris στις Ιούλιος 06, 2010, 12:34:13 πμ
   καλησπερα σε ολους μετα απο πολυ καιρο...τα τελευταια μου post ηταν δυο τραγουδακια του Γιοβαν Τσαους κ απο τοτε δεν ξαναγραψα αλλα γενικοτερα σταματησα να παιζω κ ολας.Ειδα ομως οτι εδω γινεται δουλεια κ με φτιαξατε!Οποτε απο την αλλη εβδομαδα θα ανεβασω διαφορα τραγουδια κ με την ευκαιρια θα ξαναπιασω κ το τζουραδακι μου. ;)


Τίτλος: Απ: Παρτιτούρες για Μπαγλαμά Τζουρά 3χορδο μπουζούκι...
Αποστολή από: nikkortis στις Ιούλιος 07, 2010, 12:48:51 πμ
   καλησπερα σε ολους μετα απο πολυ καιρο...τα τελευταια μου post ηταν δυο τραγουδακια του Γιοβαν Τσαους κ απο τοτε δεν ξαναγραψα αλλα γενικοτερα σταματησα να παιζω κ ολας.Ειδα ομως οτι εδω γινεται δουλεια κ με φτιαξατε!Οποτε απο την αλλη εβδομαδα θα ανεβασω διαφορα τραγουδια κ με την ευκαιρια θα ξαναπιασω κ το τζουραδακι μου. ;)
;D περιμενουμε


Τίτλος: Απ: Παρτιτούρες για Μπαγλαμά Τζουρά 3χορδο μπουζούκι...
Αποστολή από: tolisper στις Ιούλιος 07, 2010, 01:40:10 μμ
ΜΑΓΚΕΣ ΘΑ ΣΑΣ ΓΡΑΨΩ ΑΠΟ ΚΑΤΩ ΚΑΠΟΙΑ ΤΡΓΟΥΔΙΑ ΤΑ ΟΠΟΙΑ ΘΕΛΩ ΝΑ ΤΑ ΜΑΘΩ ΣΕ ΤΑΜΠΛΑΤΟΥΡΕΣ ΣΤΟ ΜΠΟΥΖΟΥΚΙ ΓΙΑ ΑΥΤΟ ΠΟΙΟΣ ΞΕΡΕΙ ΚΑΠΟΙΑ ΑΠΟ ΑΥΤΑ ΚΑΙ ΕΧΕΙ ΤΗΝ ΟΡΕΞΗ ΝΑ ΜΟΥ ΤΑ ΓΡΑΨΕΙ ΕΥΧΑΡΙΣΤΩ ΠΟΛΥ ΚΑΙ ΑΠΟ ΒΔΟΜΑΔΑ ΘΑ ΑΡΧΙΣΩ ΝΑ ΓΡΑΦΩ Κ ΓΩ ΤΡΑΓΟΥΔΙΑ!!!!!

- ΛΑΔΑΔΙΚΑ
- ΣΤΟ ΑΔΕΙΟ ΜΟΥ ΠΑΚΕΤΟ
-ΣΑΝΑΖΗΤΩ ΣΤΗ ΣΑΛΟΝΙΚΗ
-ΔΩΣΕ ΜΟΥ ΦΩΤΙΑ ΜΗΤΡΟΠΑΝΟΣ
-ΑΙΒΑΛΙΩΤΙΚΟ
-ΚΑΠΕΤΑΝΑΚΗ

ΟΠΟΙΟ ΑΠΟ ΑΥΤΑ ΤΟ ΞΕΡΕΤΕ ΠΑΡΑΚΑΛΩ ΓΡΑΨΤΕ ΤΟ ΕΥΧΑΡΙΣΤΩ ΚΑΙ ΠΑΛΙ!!!!!!!!!


Τίτλος: Απ: Παρτιτούρες για Μπαγλαμά Τζουρά 3χορδο μπουζούκι...
Αποστολή από: 3xordos στις Ιούλιος 07, 2010, 03:19:01 μμ
bes edo mesa k kati 8a vris : http://bouzouki-place.blogspot.com/


Τίτλος: Απ: Παρτιτούρες για Μπαγλαμά Τζουρά 3χορδο μπουζούκι...
Αποστολή από: tolisper στις Ιούλιος 07, 2010, 07:33:13 μμ
ΕΧΩ ΨΑΞΕΙ ΕΚΕΙ ΑΛΛΑ ΜΟΥ ΒΓΑΖΕΙ ΜΟΝΟ ΣΥΓΧΟΡΔΙΕΣ.......ΟΤΑΝ ΠΑΤΑΩ ΓΙΑ ΤΑΜΠΛΑΤΟΥΡΑ ΔΕΝ ΜΠΟΡΩ ΝΑ ΤΟ ΚΑΤΕΒΑΣΩ..!!!ΟΚ ΤΗΑΝΚΣ ΠΑΝΤΩΣ.......

***ΟΠΟΙΟΣ ΞΕΡΕΙ ΚΑΠΟΙΟ ΑΠΟ ΤΑ ΤΡΑΓΟΥΔΙΑ ΠΟΥ ΕΧΩ ΓΡΑΨΕΙ ΠΙΟ ΠΑΝΩ ΑΣ ΜΟΥ ΤΟ ΓΡΑΨΕΙ..........:p


Τίτλος: Απ: Παρτιτούρες για Μπαγλαμά Τζουρά 3χορδο μπουζούκι...
Αποστολή από: nickthegreek στις Ιούλιος 08, 2010, 10:39:18 μμ
Ρε μάγκες να ζητήσω και εγώ με τη σειρά μου κάποια τραγοθδάκια και όποιος τα ξέρει θα τον παρακαλούσα να τα φορτόσει...
Απο Μπίνη:------------
ΜΙΑ ΒΡΑΔΙΑ ΣΤΗΝ ΑΜΦΙΑΛΗ
ΖΟΥΛΑ ΑΒΕΡΤΑ ΦΑΝΕΡΑ
ΠΗΓΕΣ ΠΑΣΟ
ΠΑΤΕΡ ΗΜΩΝ
-----------------------
ΦΤΩΧΟ ΚΟΜΠΟΛΟΓΑΚΙ ΜΟΥ(ΜΗΤΣΑΚΗΣ)
ΕΜΕΝΑ ΛΟΓΙΑ ΜΗ ΜΟΥ ΛΕΣ(ΚΑΙ ΜΗ ΜΕ ΠΕΡΙΠΑΙΖΕΙΣ -ΓΚΑΤΣΟΣ ΞΑΡΧΑΚΟΣ)

να μερακλώσουμε λιγάκι..
ευχαριστώ εκ των προτέρων


Τίτλος: Απ: Παρτιτούρες για Μπαγλαμά Τζουρά 3χορδο μπουζούκι...
Αποστολή από: thanos2121 στις Ιούλιος 14, 2010, 11:48:59 πμ
Μετά από πολύ καιρό, επιστρέφω ανανεωμένος....

Παρατημένο το βλέπω το forum. Έχει να ανανεωθεί πάνω από 5 μέρες. Από τότε που το βρήκα πρώτη φορά, δεν ξανάγινε αυτό. Λοιπόν, σε λίγες μέρες θα ανεβάσω μερικά ρεμπέτικα της φυλακής και της παρανομίας. Τα έχω ήδη έτοιμα (γραμμένα) απλά αυτήν την στιγμή δεν τα έχω μαζί μου.

Αυτά και καλή συνέχεια αλανιάρηδες...


Τίτλος: Οι φυλακές του Ωρωπού [2] (Γιώργος Μπάτης)
Αποστολή από: thanos2121 στις Ιούλιος 14, 2010, 11:59:55 πμ
Τελικά τα έχω μαζί μου. Ξεκινάμε...

Οι φυλακές του Ωροπού
Στίχοι-Μουσική: Γιώργος Μπάτης

Εισαγωγή

1η: 10-11-10-11-9-7-9-10----10-11-10-11-9-7-9-10-11-10----10-11-10-11-9-7-9-10----9-8-7-7

Λόγια

1η: 10-11-10-11-9-7-9-10----10-11-10-11-9-7-9-10-11-10----10-11-10-11-9-7-9-10----9-8-7-7

1η: 14-15-17-14-11-10-10-9-10---14-15-17-14-11-10-10-8-7

Σημείωση: Το τραγούδι έχει ξανανέβει (δεν πιστεύω να πειράζει που το ξαναβάζω) και το παίξιμό του βασίζεται στην αυθεντική εκτέλεση του Παγιουμτζή (δεν τραγουδάει ο Μπάτης). Μπορείτε να το βρείτε στο youtube...



www.youtube.com/watch?v=1arKS9W68Qs


Τίτλος: Βρε μάγκες δυο στη φυλακή (Κώστας Τζόβενος - Ρίτα Αμπατζή)
Αποστολή από: thanos2121 στις Ιούλιος 14, 2010, 12:03:31 μμ
Συνεχίζουμε....

Δυο μάγκες μες στη φυλακή
Στίχοι-Μουσική: Κώστας Τζόβενος

Εισαγωγή

1η: ---4--------4----4------------2-4-----4-------------------------
2η: 2----5-3-2----2----5-3-2-3-5-------2----5-3-2-3-5-7-9-5-7-3-2-   

Λόγια

1η: 7-9-9-9-5-4-2-0-2-4---4-5-7-9-7-5-4-2-4---4------
2η: -------------------------------------------5----3-2

1η: --------------------4-5-7-9-7-5-4-2-4-----4------
2η: 5-6-5-6-5-4-5-5-5----------------------5----3-2--

Το παίξιμο του τραγουδιού βασίζεται στην εκτέλεση της Χαρούλας Αλεξίου. Υπάρχει στο youtube.



www.youtube.com/watch?v=rKT_YMElr_Y


Τίτλος: Μες στη φυλακή που μπήκα [2] (Μιχάλης Γενίτσαρης)
Αποστολή από: thanos2121 στις Ιούλιος 14, 2010, 12:08:36 μμ
Μες στη φυλακή που μπήκα
Στίχοι-Μουσική: Μιχάλης Γενίτσαρης

Εισαγωγή

1η: ------------4-5-7-4--------4-5-7--------------4-5-7-4--------------
2η: 5-5-5-6-6-----------6-5-6----------5-5-5-6-6----------6-5-0-5-0-5-

1η: 12-11-8-7-5-4-5-7--8-7-5-4-------4-5-7---12-11-8-7-5-4-5-7--8-7-5-4-------------
2η: -----------------------------6-5-6--------------------------------------6-5-0-5-0-5

Λόγια
1η: 4-5-7-7-7-5-4-----7-7---7-8-11-8-7-5-4-5-4--------4-5-7-8-11-8-7-5-4------
2η: ---------------6-5---------------------------6-5-------------------------6-5-   

1η: ---------4-------------4-5-7-----------4----------------------
2η: 5-4-5-6----5-6-4-5-6----------5-4-5-6---5-6-4-5-0-5-0-5----

Το παίξιμο του τραγουδιού βασίζεται στην αυθεντική εκτέλεση του Γενίτσαρη. Μπορείτε να το βρείτε στο youtube και είναι βίντεο από τη σειρά "Το μινόρε της αυγής".



www.youtube.com/watch?v=1TadnMNq3rI


Τίτλος: Οι δυο σερέτες [2] (Μ. Χρυσαφάκης - Ζ. Κασιμάτης & Α. Διαμαντίδης, "Νταλγκάς")
Αποστολή από: thanos2121 στις Ιούλιος 14, 2010, 12:11:51 μμ
Οι δυο σερέτες
Στίχοι-Μουσική: Μανώλης Χρυσαφάκης

Εισαγωγή

1η: 5--3-6--3-5----12---12---12---5--3-6--3-5-0-5-0-5-0-5
2η: -------------10---10---10-------------------------------

Λόγια

1η: 10-10-8-12-12-8-6-6-5-5-6-8-10-12----10-10-8-12-12-8-6-6-5-5-

1η: 15-13-12-10-8-6-5-6-8-10-12----15-13-12-10-8-6-5-0-5-0-5

Το παίξιμο του τραγουδιού βασίζεται σε εκτέλεση του Γιάννη Λεμπέση. Βρίσκεται στο youtube εύκολα



www.youtube.com/watch?v=MObVhU4A-Bc


Τίτλος: Αντιλαλούν οι φυλακές [2] (Μάρκος Βαμβακάρης, "Φράγκος")
Αποστολή από: thanos2121 στις Ιούλιος 14, 2010, 12:15:34 μμ
Ένα τραγούδι του ΜΕΓΑΛΟΥ

Αντιλαλούν οι φυλακές
Στίχοι-Μουσική: Μάρκος Βαμβακάρης

Εισαγωγή- Λόγια

1η: ---------------------------------------------------------
2η: 4-6-8-9-9-9-9-9-9-9-9-9-9---4-6-8-9-9-9-9-9-9-9-9-9-9-   

1η: -------------------------------------------------------------------
2η: 9-8-8-6-8-4-6-6-6--4-9-8-8-4-6---9-8-8-6-8-4-6-6-6--4-9-8-8-4-6

1η: 8-9-10-11-13-11-11-9-8----8------------8-9-10-11-13-11-11-9-8----8----------
2η: -------------------------11---9-11-8-9---------------------------11---9-11-8-9

1η: -------------------------------------------------------------------
2η: 9-8-8-6-8-4-6-6-6--4-9-8-8-4-6---9-8-8-6-8-4-6-6-6--4-9-8-8-4-6

Το παίξιμο του τραγουδιού βασίζεται στην αυθεντική εκτέλεση του Μάρκου Βαμβακάρη. Youtube και τα υπόλοιπα τα ξέρετε...



www.youtube.com/watch?v=bxcpVcYdYsw


Τίτλος: Βάρκα μου μπογιατισμένη (Γιώργος Μπάτης)
Αποστολή από: thanos2121 στις Ιούλιος 14, 2010, 12:18:23 μμ
Βάρκα μου μπογιατισμένη
Στίχοι-Μουσική: Γιώργος Μπάτης

Εισαγωγή
1η: ---------4------------------
2η: 0-2-4-5---0-2-4-5-0-5-0-5   

Λόγια

1η: --------4-----------------
2η: 0-2-4-5---0-2-4-5-0-5-0-5         2 φορές

1η: 4-4-2-0-0-4------------------
2η: --------------0-2-4-5-0-5-0-5       2 φορές

Το παίξιμο βασίζεται στην αυθεντική εκτέλεση του τραγουδιού και υπάρχει στο youtube. Ακούστε το και γρατσουνίστε...



www.youtube.com/watch?v=LB6wned5ZBw


Τίτλος: Ζούλα σε μια βάρκα μπήκα (Γιώργος Μπάτης - Στράτος Παγιουμτζής)
Αποστολή από: thanos2121 στις Ιούλιος 14, 2010, 12:23:49 μμ
Ζούλα σε μια βάρκα μπήκα
Στίχοι-Μουσική: Γιώργος Μπάτης

Εισαγωγή

1η: 4-5-4-5---4---9--7-7-7-4-----4-5-7-----4-5-4-5---4---9--7-7-9-4------
2η: ---------7--5-------------5-7--------------------7---5------------5-5-5

Λόγια

1η: 4-5-4-5----4---9---7-7-7-7-----4-5-7---4-5-4-5----4-----9-7-7-7-7------
2η: ---------7---5--------------5-7------------------7----5-------------5-5-5

1η: 4-5-4-5---4---9--7-7-7-4-----4-5-7-----4-5-4-5---4---9--7-7-9-4------
2η: ---------7--5-------------5-7--------------------7---5------------5-5-5

1η: 7-9-10-11--11-11-11-9-11-7-7----4-5-7----7-9-10-11--11-11-11-9-11-7-7-7-7----
2η: -------------------------------5-7---------------------------------------------5-5     x2

Το παίξιμο του τραγουδιού βασίζεται στην εκτέλεση του Γιώργου Νταλάρα και του Στέλιου Βαμβακάρη στη συναυλία "τραγούδια με ουσίες". Θα το βρείτε στο youtube



www.youtube.com/watch?v=6zQ1VLb-ITE


Τίτλος: Απ: Παρτιτούρες για Μπαγλαμά Τζουρά 3χορδο μπουζούκι...
Αποστολή από: thanos2121 στις Ιούλιος 14, 2010, 12:26:25 μμ
Μαγκίτες μου, αυτά από μένα. Μπορεί να έκανα καιρό να εμφανιστώ αλλά δεν σας απογοήτευσα. Όταν ξαναμαζέψω υλικό, να είστε σίγουροι ότι θα το μοιραστώ μαζί σας. Καλό γρατσούνισμα και ανεβάστε όσα περισσότερα ρεμπέτικα μπορείτε.

Την καλημέρα μου σε όλους σας...


Τίτλος: Απ: Παρτιτούρες για Μπαγλαμά Τζουρά 3χορδο μπουζούκι...
Αποστολή από: matzore στις Ιούλιος 15, 2010, 02:24:43 πμ
exeios ta evxaristomas
nase kala


o REBETIS EXEI KERO NA MAS FANI??


Τίτλος: Απ: Παρτιτούρες για Μπαγλαμά Τζουρά 3χορδο μπουζούκι...
Αποστολή από: alterna στις Ιούλιος 15, 2010, 10:09:48 πμ
Πρώτος ο thanos 2121.. ωραίος!!
Αρχίζει η μελέτη..


Τίτλος: Στην Αμφιάλη (Στ.Ξαρχάκος/Ν. Γκάτσος - Κώστας Τσίγγος & Τάκης Μπίνης)
Αποστολή από: Lelis Gougounis στις Ιούλιος 15, 2010, 02:48:36 μμ
ΣΤΗΝ ΑΜΦΙΑΛΗ (καμηλιέρικο)

Εισαγωγή
12--11-12-14-12-11-12-14-12-11-12-   17-17-17-
12--11-12-14-12-11-12-10-9-(12)-9-    (10)-(10)-(10)-
(10)&9--(10)&9-(10)&9-   (10)&9--(10)&9-(10)&9-   (10)&9--(10)&9-(10)&9-  (10)&9--(10)&9--(10)&9--
Σολ ματζορε δηλαδη στο ρυθμο του καμηλιερικου (3 αργα-3 γρηγορα)  

Λογια

12-12-11-12-14-12-17--17--17--            
16-14-12-10-9-(12)-(10)--(10)--(10)--    
2φορες

Ρεφραιν
9-(12)-(11)--(12)--9--10-9-(12)--(12)--(12)--
(12)-(10)-(9)--(10)--(12)--9-(12)- (10)--(10)--(10)--
2 φορες



www.youtube.com/watch?v=-8dKiIp6AOY


Τίτλος: Απ: Παρτιτούρες για Μπαγλαμά Τζουρά 3χορδο μπουζούκι...
Αποστολή από: Tzanis1234 στις Ιούλιος 18, 2010, 10:25:34 μμ
       Παιδιά παρακολουθώ καιρό το forum και έχω μάθει καμιά εικοσαριά τραγούδια από εδώ. Είναι η πρώτη φορά που γράφω δυστυχώς δε μπορώ να βοηθήσω πολύ με ταμπλατούρες είμαι καινούργιος στο μπουζουκι και σχεδόν όσα έχω μαθει είναι από εδώ. Θα ήθελα σας παρακαλώ κάποιος, όποτε μπορει, να ανεβάσει την αυθεντικη εκτέλεση του Βαμβακάρη του τραγουδιού: Τα δυο σου χέρια πήρανε. Πιο πάνω έχω δει ότι έχει ανέβει αυτή του Μπιθικώτση. Ευχαριστώ εκ των προτέρων και γενικά για όλη τη βοήθεια που έχω πάρει από δω.


Τίτλος: Απ: Παρτιτούρες για Μπαγλαμά Τζουρά 3χορδο μπουζούκι...
Αποστολή από: tolisper στις Ιούλιος 19, 2010, 01:15:28 μμ
ΜΗΠΩΣ ΕΧΕΙ ΚΑΝΕΙΣ ΤΟ ΑΙΒΑΛΙΩΤΙΚΟ???...........ΤΟ ΨΑΧΝΩ ΚΑΙΡΟ ΓΙΑΤΙ ΕΙΝΑΙ ΤΟ ΑΓΑΠΗΜΕΝΟ ΜΟΥ ΖΕΙΜΠΕΚΙΚΟ/..>>!!!!!!!ΕΥΧΑΡΙΣΤΩ ΜΑΓΚΕΣ.............


Τίτλος: Το πιτσιρικάκι [2] (Γ. Ροβερτάκης/Α. Νικολέσκο - Πρόδρομος Τσαουσάκης)
Αποστολή από: tolisper στις Ιούλιος 19, 2010, 01:30:18 μμ
ΠΑΡΤΕ ΚΑΙ ΑΠΟ ΜΕΝΑ ''ΤΟ ΠΙΤΣΙΡΙΚΙ''!!ΕΙΝΑΙ ΤΟΥ ΜΑΡΚΟΥ ΒΑΜΒΑΚΑΡΗ ΚΑΙ ΕΙΝΑΙ ΟΛΟΣΩΣΤΟ !!!
οι παρενθεσεις παιζονται στην απο πανω χορδη (2η)

ΤΟ ΠΙΤΣΙΡΙΚΙ
εισαγωγη
7-12-10-8-7-10-8-7-5-8-7-5-3-(3)-3-(3)-3

3-7-5-3-2-5-3-2-2-3-2-0-0-(0)-0-(0)-0
λογια
ενα πιτσιρκι ειναι ξαπλωμενο
(3)-(3)-0-2-3-3 -3-5-3-2-0-0 { τρις φορες }

7-12-10-8-7-7 7-12-10-8-7-7-7  7-12-10-8-7-7
3-0-2-(3)-0-0-0
(3)-(3)-0-2-3-3 (3)-(3)-0-2-3-3-3 (3)-(3)-0-2-3-3     3-0-2-(3)-0-0-0-


ΕΠΑΝΑΛΑΜΒΑΝΩ ΟΠΟΙΟΣ ΕΧΕΙ ΤΟ ΑΙΒΑΛΙΩΤΙΚΟ ΝΑ ΜΟΥ ΤΟ ΓΡΑΨΕΙ........ΕΥΧΑΡΙΣΤΩΩ



www.youtube.com/watch?v=AuY1NXugb80


Τίτλος: Απ: Παρτιτούρες για Μπαγλαμά Τζουρά 3χορδο μπουζούκι...
Αποστολή από: megasteve στις Ιούλιος 19, 2010, 05:03:34 μμ
Ευχαριστουμε για "το πιτσιρικακι" φιλε!
Μονο μια μικρη διορθωση αν επιτρεπεις, δεν ειναι του "μεγαλου" Μαρκου.
Το τραγουδι το εχει γραψει ο Ροβερτακης το 1961 κ το τραγουδησε 1ος ο Προδρομος Τσαουσακης.


Τίτλος: Η λιτανεία του μάγκα (Βασίλης Τσιτσάνης)
Αποστολή από: lykos στις Ιούλιος 19, 2010, 09:03:58 μμ
Ειδα οτι λειπει και το ανεβάζω

Η λιτανεια του μαγκα - Ο αρχαγγελος Στιχοι - μουσικη Βασιλης Τσιτσάνης

Εισαγωγη
7-12-12-11-12-14-12-14-12-11-78-7-8-7-5-7-15-14-12-11-12-11-8-7-5-3-5-7-  α μερος εισαγωγης

7-12-12-11-12-14-12-11-8-7-8-7-5-7-15-14-12-11-12-11-8-7-5-3-2-0   β μερος εισαγωγης

Λογια
σαν    χρι    στια   νος  κιο    ρθο   δο   ξος   σ   αυτην   την   κοι   νω   νι   α
 7     12 12  10     8     5      7 8 7  5    3     2     5        3     2      0     5    5

γου   στα   ρη   σα   βρε   μα   γκες   μου   να   κα   νω   λει    τα    νι    α
7      12 12  10  8      5    787   5       3     2     5      3    2      3     0    0



www.youtube.com/watch?v=TuaB_GcEFOU


Τίτλος: Απ: Παρτιτούρες για Μπαγλαμά Τζουρά 3χορδο μπουζούκι...
Αποστολή από: lykos στις Ιούλιος 19, 2010, 09:14:37 μμ
Ολα τα κουρντισματα που χρησιμοποιουσαν οι παλιοι πρι το ΡΕ ΛΑ ΡΕ

ΑΝΟΙΚΤΟ   ΡΕ   ΣΟΛ   ΣΟΛ     παιζονται  η σκυλα του Μαρκου και   το   τουτοι οι μπατσοι  πουρθαν τωρα

ΚΑΡΑΝΤΟΥΖΕΝΙ     ΡΕ   ΣΟΛ   ΛΑ   παιζετε ο δρομος ΟΥΣΑΚ

ΣΥΡΙΑΝΟ      ΡΕ    ΣΟΛ    ΛΑ#      ΔΡΟΜΟΣ   ΧΙΤΖΑΖ   ΧΙΤΖΑΣΚΙΑΡ

ΑΡΑΜΠΙΕΝ     ΡΕ     ΣΟΛ    ΣΙ       ΔΡΟΜΟΣ    ΧΟΥΖΑΜ

ΙΣΙΟ           ΡΕ    ΣΟΛ     ΡΕ        ΔΡΟΜΟΣ    ΡΑΣΤ

Οι νοτες ειναι απο κατω προς τα επανω

Καλες δοκιμες


Τίτλος: Απ: Παρτιτούρες για Μπαγλαμά Τζουρά 3χορδο μπουζούκι...
Αποστολή από: χαρης στις Ιούλιος 20, 2010, 10:07:16 πμ
μια παρατηριση.

το ισιο ειναι το ρε σολ σολ  και λεγεται  ισιο γιατι πατωντας το 5ο ταστο της ρε και τις αλλες δυο χορδες ανοιχτες ακουγεται η νοτα ΣΟΛ.


Τίτλος: Απ: Παρτιτούρες για Μπαγλαμά Τζουρά 3χορδο μπουζούκι...
Αποστολή από: lykos στις Ιούλιος 20, 2010, 11:29:31 μμ
Χαρη εχεις απολυτο δικιο δεν το ειχα σκεφτει ετσι  Ευχαριστω για την διορθωση


Τίτλος: Το χρήμα δεν το λογαριάζω (Μανώλης Χιώτης - Στράτος Παγιουμτζής, "Τεμπέλης")
Αποστολή από: ρεύομαι στις Ιούλιος 21, 2010, 12:00:19 πμ
Ας σας ευχαριστήσω για τα τραγούδια βάζοντας ένα τζαμάτο και να ζητήσω τη σκύλλα... :p

Το χρήμα δε το λογαριάζω :) Χιώτης, αλλά ρεμπέτικο.

www.youtube.com/watch?v=WynXGfS_7bE


Είναι περίπου σαν κι αυτή την εκτέλεση όμως:

www.youtube.com/watch?v=5ecG39mUZRc


Εισαγωγή:

1η: ----------------------------------------------------------4------4-5-4-7-5-4-5-6-7-4-1-0
2η: --------------------------------------------4--6-5-4-5-6----5-6--------------------------
3η: 0-1-0-1-4--0-4-0-4-7--0-5-0-5-8--0-8-0-8-----------------------------------------------

1η: --5-0-5-8----4-0-4-7----1-0-1-4---------------------------------------|1|-|0|-----------
2η: -------------------------------------5-4-5-6-5-4-1-0------------------|1|-|0|-----------
3η: 0----------0-----------0----------0------------------5 4-5-7-5-4-1-0-|1|-|0|------------

Λόγια:
                          Το χρή  μα δεν  το  λο   γα   ριά   ζω
1η: -------11-12--13- 12- 11- 8-   7-   5-   4-   5-   6-7---0-4-5-6-7--
2η: 12-13------------------------------------------------------------
3η: -----------------------------------------------------------------

      τα  δυο σου μα  τια  σαν  κοι  τα    ζω                  
1η: 13- 12- 11- 8-   7-   5-   4-   5-   6-7---0-4-5-6-7----
2η: -----------------------------------------------------
3η: -----------------------------------------------------

      δυο  μαύ  ρα    μά    τια    σαν   κια     αυ    τα    α  α α
1η: |7|- |8|- |9|- |10|- |9|- |10|-|12|-|13|-|13|-|13|-|13|-|13|-|13|-|13|-|13|-|13|-|13|
2η: |9|-|10|-|11|-|12|-|11|-|12|-|14|-|15|-|15|-|15|-|15|-|15|-|15|-|15|-|15|-|15|-|15|
3η: ---------------------------------------------------------------------------------------
      αχ  δεεεεεν       τα  βρί σκω με  λεφ τα                                                                               x2
1η: 12-11-11-11-11-12-13- 12- 16- 13- 12--16-19-17-16-17-18-19 19-19-19-19--------------
2η: ---------------------------------------------------------------------------------------  
3η: ---------------------------------------------------------------------------------------

Τη δεύτερη φορά δε παίζεις το 16-19-17-16-17-18-19 19-19-19-19 αλλά κλείνεις με

1η: -5-4-
2η: -6-5-
3η: -8-7-

Και πάλι από την αρχή.

Ό,τι δεν καταλαβαίνετε ρωτήστε.


Τίτλος: Τα νιάτα τα μπερμπάντικα (Β. Τσιτσάνης - Στέλλα Χασκήλ & Θανάσης Ευγενικός)
Αποστολή από: hristos στις Ιούλιος 21, 2010, 06:35:31 πμ
ΤΑ ΝΙΑΤΑ ΤΑ ΜΠΕΡΜΠΑΤΙΚΑ                ΤΣΙΤΣΑΝΗΣ

ΕΙΣΑΓΩΓΗ
1Χ  --7-9-10-9-7-7-9-7---7-7-7-7-7--10-9-7-7-9-7--7-7-7.-4-5-5-4-3-2--4-4-4-5
2Χ 10------------------10-------------------------10-----------------------------

1Χ 4-5-4-7-5-4--4---------10-9-10-12-8-10-8-7-7--7-9-10-9-7-8-7--7-7--8-7
2Χ ------------6---6-5-2-3-----------------------10---------------10---10----
ΣΤΙΧΟΙ
1Χ --7-7--10-8-10-8-7-7-7-7-7-----7-9-10-8-7-7-8-7--7-10-8
2Χ 10---10--------------------10-10-----------------10------  Χ2

1Χ 2-3-4-5-4--5--4-5.-4-------------------4-5--4-5.-4------9.-10-9-8-7--7-9-10-9-7-8-7---
2Χ ---------------------6-5-3-3-3--3--6--5------------6-5-3-----------10---------------10-
                   ΡΕΦΡΕΝ
1Χ 7-7--8-7--10--8-10-8--7-7-7--7--10--8-10-8--7-7-7-7-7-7-7-7-7--5--4-5-7--10-8-10-8--7--7
2Χ ---10----------------10---------------------10-----------------------------------------10----

Στις τελείες κρατάμε λίγο περισσότερο το χρόνο και τα υπογραμισμμένα παίζονται στον ίδιο χρόνο.



www.youtube.com/watch?v=kJDd4hhetvw


Τίτλος: Τα δυο σου χέρια πήρανε (Βεργούλες) [2] (Μάρκος Βαμβακάρης, "Φράγκος")
Αποστολή από: Tzanis1234 στις Ιούλιος 21, 2010, 08:29:14 μμ
Τελικά τα κατάφερα και το βρήκα. Ανεβάζω τις βεργούλες σε αυθεντική εκτέλεση του Μάρκου Βαμβακάρη:

Τα δυο σου χέρια πήρανε (Βεργούλες)

Εισαγωγή:

-----------------------------4-5-7-5-7-5-4--------------}
-7-7-5-7-7-5-7-7-5-7-7-5-7----------------7-5-7---7----} Χ2
--------------------------------------------------9---9--}

-------7-9-7-9-7---------------5-4-4---4--
-9-10------------10-9-7-9-5-7--------5----
--------------------------------------------

------7-9-7-9-7----------------------
-9-10-----------10-9-7--9-7-5-4-2---
--------------------------------------

Λόγια:

--------2-4---4-7-5-4-4-2-0-2-4---4----}
-2-4-5------2--------------------2---2--} Χ2
-----------------------------------------}

-4-5-7-9-7-9-7-5-4---4-----5-4-4-4--
--------------------7---5-7-----5-5--
---------------------------------7-7--

-4-5-7-9-7-9-7-5-4---4-2-0--------------
--------------------7--------4-2----2----
----------------------------------4---4---

Οι πράσινες παίζονται ταυτόχρονα και οι κόκκινες λίγο πιο γρήγορα.



www.youtube.com/watch?v=CHjbyIRnJp0


Τίτλος: Κανείς εδώ δεν τραγουδά [2] (Νίκος Παπάζογλου)
Αποστολή από: thodoris στις Ιούλιος 22, 2010, 05:11:39 πμ
      καλησπερα σε ολους τους τριχορδους.
 Για σημερα βαζω το Κανεις Εδω Δεν Τραγουδα
 Μουσικη : Ν.Παπαζογλου
 Στιχοι : Τ.Σιμωτας

 Εισαγωγη (2 φορες)
 
1η: --5-5-7---7-5---5-5--5---3-5-3-5-2-3---3-3--3---3--2-----------2--3--5--3-5-3-2--3--2
2η: 8-------8-----------------------------------------------5--3--5------------------------5
 
 Λογια

1η: 5--5--3--5--5---3---2--3--3--2-----------2--3--5--5--3--2--3--2
2η: --------------------------------5--3--5---------------------------5

1η: 5--5--3--5---7--5--3---2--3----3--2-----------2--3---5--3--2--3--2
2η: ---------------------------------------5--3--5--------------------------5

 Εισαγωγη (1 φορα)

Λογια

1η:-5--5--5--7---8---7---5---7

1η:-5--5--5--7---8---7---5---7

1η:---------5------------------------ ---5----5-------5
2η:8--8--8------7--7--7--8--5--5--5--6---8-----6--5

1η:---------5------------------------ ---5----5
2η:8--8--8------7--7--7--8--5--5--5--6---8-----6--5-6--5


Οι υπογραμμισμενες ειναι τριηχα κ οι κοκκινες παιζονται τρεμολο.



www.youtube.com/watch?v=lokMwhP7DNg


Τίτλος: Σ' αναζητώ στη Σαλονίκη (Μάριος Τόκας/Φίλιππος Γράψας - Δημήτρης Μητροπάνος)
Αποστολή από: thodoris στις Ιούλιος 22, 2010, 08:37:16 πμ
  Λοιπον επειδη δεν μου κολλαει υπνος ας ανεβασω κ ενα ακομη για τον tolisper  :)
      Σ' Αναζητω Στην Σαλονικη
 Μουσικη : Μ.Τοκας
 Στιχοι : Φ.Γραψας

 Εισαγωγη

 1η:10-12-10-9-10--10--9-------------9-----9---------12----10-12-9-10---
 2η:-----------------------12-10--------------12--10--------------------12

 1η:10-12-10-9-10--10--9-------------9-----9---------12----10-12-9-10-7
 2η:-----------------------12-10--------------12--10----------------------

 Λογια

 1η:-------------0--------0---0--------------------------------------0------0
 2η:7-7-7-7-8-7----7-8-7---7---3-----8-8-8-8-10-8-7-8-10-8-7-8-7----------

 1η:-7-7-7-7-7-7-7-7-7-7----9--9---9-9-9-9-9-9-9-9------9-9-----10--9
 2η:----------------------10-----------------------------------10-------

 1η:-------------0--------0---0--------------------------------------0---
 2η:7-7-7-7-8-7----7-8-7---7---3-----8-8-8-8-10-8-7-8-8------10-8-7-8-7-------

 1η:-7-7-7-7-7-7-7-7-7-7----9--9---9-9-9-9-9-9-9-9-9--------9-7-10--9
 2η:----------------------10---------------------------------------------------

 1η:10-10-9-10--10-10-9-10-10-9-10-10--14----12-10-9-------------10--9--7----------
 2η:------------------------------------------------------12-10----------------10--9--8

 1η:---9-----9-9-9--7-------------------------9--10----9------
 2η:7-------------------10------10-10-10-12-----------------12

    
 1η:10-10-9-10------10-10-9-10-10-10-9-10--14------12-10-9--------------10-9-7--------
  2η:-----------------------------------------------------------12-10----------------10-9-8

 1η:---9-----9-9-9--7------------12---12-10-9-9----
 2η:7-------------------10----10------------------12-12

 Οι υπογραμμισμενες ειναι τριηχα και οι κοκκινες παιζονται με τρεμολο



www.youtube.com/watch?v=ifoDyc44X6Q


Τίτλος: Φτωχό κομπολογάκι μου (Γιώργος Μητσάκης)
Αποστολή από: thodoris στις Ιούλιος 23, 2010, 05:34:33 πμ
   Κ για τον nickthegreek Φτωχο Κομπολογακι Μου
Μουσικη : Γ.Μητσακης
Στιχοι: Γ.Μητσακης

 Εισαγωγη

1η:-9-10-11-12--14-12-11-12--14--12--14-12-11-12--14--12--14-12-11-12--14--12--10--9----------------
2η:-----------------------------------------------------------------------------------------12--10-9-10-11

1η:----------------9--10-9-12-10-9-10--11--12-14-10-12-9-10-7-9-5--5-0-5--0--5-5-4-2
2η:-12--12-11-12------------------------------------------------------------------------

1η:-1--9-8-9--10--9--9-8-9--10---9-10----9----------------14-13-10-9------------------8-9
2η:-2-----------------------------------13---10-13-9-10----------------13-10-9----9-10----
3η:------------------------------------------------------14----------------------14---------

 Λογια

1η:-9--9--10--9--7--9--7--5--5---5---
2η:10-10--12-10--9-10--9-7--7---7---

 Ανταποκριση

1η:-9-10----9----------------------------
2η:------12---10-12-9-10----9-10-12-10-
3η:-----------------------14-------------

 Λογια

1η:--9---9--10---9--7---9--7--5--5---5
2η:-10--10--12--10--9--10--9--7--7---7

 Ανταποκριση

1η:-9-10----9-----------------------------
2η:------12---10-12-9-10----9-10-11-10-7
3η:-----------------------14--------------

 Λογια

1η:-9---10--9----9--10--9--7--9--7--5---5-------4-5-6-7-
2η:10---12-10---10--12-10-9--10-9--7---7----------------

1η:-7---9--10---10-12-14-14-12-10--9---9--------7-8-9
2η:-9--10--12---12-14-15-15-14-12-10--10-----10------

1η:--9---10--9----9--10--9--7--9--7--5---5-----9-10-11
2η:-10---12-10---10--12-10-9--10-9--7---7-------------

 Οι υπογραμμισμενες ειναι τριηχα.
 Αντε κ οι υπολοιποι , αφηστε τις παραλιες  ;D



www.youtube.com/watch?v=lij_7cQQNxM


Τίτλος: Απ: Παρτιτούρες για Μπαγλαμά Τζουρά 3χορδο μπουζούκι...
Αποστολή από: sakis pinezopoulos στις Ιούλιος 23, 2010, 10:16:13 μμ
Καλως σας βρηκα παιδια συγχαρητηρια για το εκπληκτικο site σας και για την προσπαθεια σας να ανεβαζετε ταμπλατουρες. Θα ηθελα αμα μπορει καποιος να ανεβασει το τραγουδι "Μες στον πρασινο τον μυλο " για τριχορδο ευχχαριστω εκ των προτερων


Τίτλος: Απ: Παρτιτούρες για Μπαγλαμά Τζουρά 3χορδο μπουζούκι...
Αποστολή από: ΓΕΩΡΓΙΟΣ στις Ιούλιος 24, 2010, 04:10:15 μμ
γεια σασ παιδια.κανεται πολυ καλή δουλεια και έτσι να συνεχίσεται.έγω παίζω μπουζούκι κάνω βέβαια μαθήματα με
δάσκαλο δεν έχω προχωρήσει πολυ παιζω ορισμένα κομμάτια, όπως τα μυρα μάτια , ευδοκια  δηλαδή αυτα που έχουν
εύκολα μέτρα αλλα σε κανα μήνα θα πάμε σε αλλα μέτρα και σε δύσκολα τραγούδια δηλ.σε ταξίμια  και ποιο δυσκολα σε σολο τσιφτετελια και ίσως τότε να ανεβάσω και εγώ κανα τραγούδι. τώρα  όποισ έχει ώρα και ξέρει να  γράψει το
θα το δωσω το ρολόι και θα πάρω κομπολόι  θα το εκτιμούσα.  ΕΥΧΑΡΙΣΤΩ.


Τίτλος: Απ: Παρτιτούρες για Μπαγλαμά Τζουρά 3χορδο μπουζούκι...
Αποστολή από: thanos2121 στις Ιούλιος 24, 2010, 10:30:58 μμ
Λοιπον μάγκες...

πριν κάποια χρόνια είχα ακούσει ένα τραγούδι που το τραγουδούσε μια γκόμενα (δεν ξέρω ποια) και έλεγε περίπου τα εξής:

διπλοκλειδώνουν τις πόρτες με σύρτη
μη δουν χαράματα τον αλήτη
δεν θέλουνε τον αλήτη στο σπίτι
που χει το θάνατο ιδιοκτήτη
δεν τον θέλουν φίλοι συγγενείς, είναι άρρωστος και ναρκομανής

Αυτοί είναι στο περίπου οι στίχοι του τραγουδιού. Είναι ζειμπέκικο αν θυμάμαι καλά με μπουζουκάκι και τέτοια...Το θυμήθηκα ούτε και εγώ δεν ξέρω γιατί. Το ξέρει κανείς από σας??? Όποιος το ξέρει, του χρωστάω μεγάλη χαρη...


Τίτλος: Φανταράκι (Σπύρος Πιπεράκης/Κώστας Φέρης - Γιώργος Ζαμπέτας)
Αποστολή από: tolisper στις Ιούλιος 26, 2010, 01:04:41 μμ
 file '' thodoris '' se eyxaristo poly gia to tragoudi pou zitisa..!!!!!!!!!opos eipa 8elo opoios exei to aivaliotiko zeibekiko einai aptaliko kai psaxno na to vro poli kairo,...........elpizo kapoios na to kserei kai na mou to grapsei..!!!!!

ΠΑΡΤΕ ΚΑΙ ΑΠΟ ΜΕΝΑ ΤΟ  '' ΦΙΝΟ ΦΑΝΤΑΡΑΚΙ '' ΠΟΥ ΕΙΝΑΙ ΤΟΥ ΖΑΜΠΕΤΑ

ΕΙΣΑΓΩΓΗ

3η χορδη: -7-9-- ----7-----7-9-------7---------
2η χορδη: ------7-8------8-------7-8-----------

ΛΟΓΙΑ

1η χορδη:-10-10-10-10-10-10-12-10------10-10-10-10-10-10-12-10-----10-10-10-10-10-10-10-10----10-8-7

1η χορδη:7-7-7-7-7-7-8-7----7-7-7-7-7-7--8-7-----7-7-7-7-7-7-7-7-----7-
2η χορδη:------------------------------------------------------------------10-8--


1η χορδη:-8--------10-7------------------7------------------
2η χορδη:------------------8--10-10-10-8----8---------------
3η χορδη:----------------------------------------9-7---------

1η χορδη:-8-------10-7-------------------------------
2η χορδη:----------------8---10-10-10---7--8--------
2η χορδη:---------------------------------------------

ΟΛΟ ΤΟ ΤΡΑΓΟΥΔΙ 2 ΦΟΡΕΣ ΠΑΙΖΕΤΑΙ!!!!!!!!!!!!!!!!!!!!
ΟΠΟΥ ΕΧΕΙ ΠΟΛΛΕΣ ΠΑΥΛΕΣ ΑΝΑΜΕΣΑ ΣΤΟΥΣ ΑΡΙΘΜΟΥΣ ΤΟΤΕ ΚΡΑΤΗΣΤΕ ΠΑΤΗΜΕΝΟ ΤΟ ΤΑΣΤΟ ΓΙΑ ΜΕΓΑΛΗΤΕΡΗ ΔΙΑΡΚΕΙΑ ΑΠΟ ΟΤΙ ΣΤΑ ΑΛΛΑ....!!!!!

ΤΑ ΛΟΓΙΑ ΕΙΝΑΙ:
ειμαι φινο φανταρακι και εχω ενα κρυφο μερακι ππυ κρατουσα μεχρι τωρα μυστικο
εχω αποψε στισ εννεα ραντεβου κυρ δεκανεα με ενα κοριτσακι φινο και γλυκο

οοοοοοο μανα μου γλυκια οοοοο  θα ρθω στις εννια

οοοοοοο μανα μου γλυκια οοοοο  θα ρθω στις εννια

telos!!!!!!!!
sas 8imizo opoios exei 8elo to aivaliotiko zeibekiko!!!!



www.youtube.com/watch?v=tGhToxQNwwk


Τίτλος: Απ: Παρτιτούρες για Μπαγλαμά Τζουρά 3χορδο μπουζούκι...
Αποστολή από: ΘΟΔΩΡΗΣ στις Ιούλιος 30, 2010, 03:52:14 μμ
Παίδες συνεχίζουμε δυνατά!!!!Έβγαλα τα ''πάγια '' του Σωκράτη Μάλαμα αν ενδιαφέρεται κανείς πείτε μου να το γράψω εδώ!! αυτό είναι το κομμάτι..  http://www.youtube.com/watch?v=LPv6geXLlbU


έχω και γω 2 παραγγελίες για τα ξεφτέρια του τρίχορδου,θέλω να ανεβάσει κάποιος το ''που να βρω γυναίκα να σου μοιάζει'' και το ''κάνε λιγάκι υπομονή'' του Τσιτσάνη....αν έχει ανέβει κάποια από τα 2 πείτε μου παρακαλώ αλλιώς όποιος μπορέσει να τα ανεβάσει θα ήταν πολύ καλό....

ευχαριστώ αλάνια!


Τίτλος: Ρολόι - κομπολόι (Άκης Πάνου/Άννα Μπακιρτζή - Γρηγόρης Μπιθικώτσης)
Αποστολή από: ΜΑΚΗΣ στις Ιούλιος 30, 2010, 07:21:50 μμ
ΑΚΗΣ ΠΑΝΟΥ   
ΤΟ ΡΟΛΟΙ


εισαγωγή
1)3--3-3-3--3-3-3--3-3-3--3--3--    τριπλές
2)5--5-5-5--5-5-5--5-5-5--5--5--
3)7--7-7-7--7-7-7--7-7-7--7-7--
λόγια
1)3--0-0-5--5--5--3-5-7--3-5-1-0-0--
2)5
3)7

1)3--0-0-5--5--5--3-5-7--3-5-1-0-0--
2)5
3)7

1)0-0-1-3-1-0----1--5---
2)-------------3------------

1)5-7-5-3-5--7--3--1--0--0--0—

1)12----12----12----10--8--7--
1)10---10---10---8--7--5--
1)5----7----8----10--8-7-5--
1)3----5----7----1--0----



www.youtube.com/watch?v=hoDNfqwhKt0


Τίτλος: Απ: Παρτιτούρες για Μπαγλαμά Τζουρά 3χορδο μπουζούκι...
Αποστολή από: alterna στις Ιούλιος 31, 2010, 11:23:01 πμ
Παίδες συνεχίζουμε δυνατά!!!!Έβγαλα τα ''πάγια '' του Σωκράτη Μάλαμα αν ενδιαφέρεται κανείς πείτε μου να το γράψω εδώ!! αυτό είναι το κομμάτι..  http://www.youtube.com/watch?v=LPv6geXLlbU


έχω και γω 2 παραγγελίες για τα ξεφτέρια του τρίχορδου,θέλω να ανεβάσει κάποιος το ''που να βρω γυναίκα να σου μοιάζει'' και το ''κάνε λιγάκι υπομονή'' του Τσιτσάνη....αν έχει ανέβει κάποια από τα 2 πείτε μου παρακαλώ αλλιώς όποιος μπορέσει να τα ανεβάσει θα ήταν πολύ καλό....

ευχαριστώ αλάνια!







Φίλε Θοδωρή μέσα με χίλια Μάλαμας..
Εχει πολύ υλικό για τρίχορδο..


Τίτλος: Απ: Παρτιτούρες για Μπαγλαμά Τζουρά 3χορδο μπουζούκι...
Αποστολή από: jkoulou στις Αύγουστος 02, 2010, 02:44:37 πμ
Μάλαμας!!! Φίλε μου αναμένω να βάλεις τα 'πάγια'...Τρομερό κομμάτι...Και οτι άλλο από Μάλαμα έχεις θα ήταν τέλειο... Σε ευχαριστώ θερμά!!! Ευχαριστώ και όλους τους υπόλοιπους, γιατί είναι ο μόνος τρόπος για μένα τον αρχάριο να παίξω... :)


Τίτλος: Απ: Παρτιτούρες για Μπαγλαμά Τζουρά 3χορδο μπουζούκι...
Αποστολή από: χαρης στις Αύγουστος 02, 2010, 09:54:39 πμ
υπαρχει κιαλλος τροπος .
να κατσεις σιγα σιγα και με ταυτι σου να βγαλεις το κομματι .


Τίτλος: Απ: Παρτιτούρες για Μπαγλαμά Τζουρά 3χορδο μπουζούκι...
Αποστολή από: jkoulou στις Αύγουστος 02, 2010, 01:20:34 μμ
10 μέρες έχω πάρει το τζουρά... όλο αυτό το υλικό με έχει βοηθήσει απίστευτα... ;)


Τίτλος: Τα πάγια (Σωκράτης Μάλαμας)
Αποστολή από: ΘΟΔΩΡΗΣ στις Αύγουστος 02, 2010, 02:09:36 μμ
χάρη στην αρχη ειναι δυσκολο να βγαζεις με το αυτι τον πρωτο καιρο.καλυτερα να βλεπεις τα πατηματα στην αρχη....ειναι κ θεμα ταλεντου βεβαια και ποσο το χεις...γραφω τα 'παγια' που τα θελει κοσμος..τα γραφω σε απλη μορφη γιατι τεχνικα ειναι δυσκολο να παιχτει στο μπουζουκι καλα,δεν εχω μπουζουκι μαζι μου και τα γραφω τα πατηματα με το μυαλο οποτε συγχωρεστε μου τυχον λαθακια...εβγαλα το κομματι απο σολ,απο εκει που ειναι κανονικα δηλαδη οπως το παιζει και ο σωκρατης λαιβ.. βαζω με μυαλο τα πατηματα,τους χρονους θα τους βρειτε με αυτι..(όσα δεν διαχωρίζονται με παυλίτσες ''-'' είναι γεμισματακια που παιζονται πιο γρηγορα)  

ΤΑ ΠΑΓΙΑ - ΣΩΚΡΑΤΗΣ ΜΑΛΑΜΑΣ

http://www.youtube.com/watch?v=oi5qhI3sVTQ


ΕΙΣΑΓΩΓΗ

-5-6-5-3-5---------------------------------------------------------------------------------------    (Χ2)
------------5-6-5-3-5-1-3----------------3--5-6-5-3-5--3--1-3-5---5-6-5-3-5-1-3----------------
 ----------------------------5-6-3-5--3-6---------------------------------------------5-6-3-5----


ΚΟΥΠΛΕ

-3-5-6-5-3---------3-5-6-8-10-6-5-5--------------------5-5-------------3-----------------------    (Χ2)
------------6-5-3--------------------653-3-5-6-5-3-5-6-----531-1-3-5-6--5-3--31---------------
------------------------------------------------------------------------------------65-----------


ΡΕΦΡΕΝ

-6-6-6-6-5-5-3-5---3-5-6-8-10-6-5-5--------------------5-5--------------------3-----------------
--------------------------------------653-3-5-6-5-3-5-6-----531-1-3-5-3-1-3-5-------------------
---------------------------------------------------------------------------------------------------


---------------------------------------------------------6-6-6-8-10-6-5---------------------------
-------------------3--6-6-5-5-3-5-3---3-5-6-5-3-5-3-1--------------------------------------------
-6-8-10-8-6-8-10----------------------------------------------------------------------------------



Από Σωκράτη και Θανάση έχω κι άλλα θα τα ανεβάσω.όποιος μπορεί ας ανεβάσει και κανέναν άλλον Μάλαμα σε τρίχορδο έχει φοβερά κομμάτια..



www.youtube.com/watch?v=49dSqtoESkE


Τίτλος: Απ: Παρτιτούρες για Μπαγλαμά Τζουρά 3χορδο μπουζούκι...
Αποστολή από: ΘΟΔΩΡΗΣ στις Αύγουστος 02, 2010, 02:13:23 μμ
Έχω και 2 παραγγελιες για οποιον θελει να τα βγαλει και να τα ανεβασει...

την ''γκαρσονα'',το ''κανε λιγακι υπομονη'' και το ''που να βρω γυναικα να σου μοιαζει'' σε τριχορδο!!!

την ''γκαρσονα'' ειδικα θα ηθελα να τη δω ανεβασμενη! για παμε!!!


Τίτλος: Απ: Παρτιτούρες για Μπαγλαμά Τζουρά 3χορδο μπουζούκι...
Αποστολή από: ΡΕΜΠΕΤΗΣ στις Αύγουστος 02, 2010, 04:20:24 μμ
Τριχορδοι καλησπερα
Λογω φορτου εργασιας, με εχετε χασει τελευταια, αλλα παρακολουθω την κατασταση και τα ευχαριστα ειναι οτι εχω πολλα απο αυτα που εχετε παραγγειλει οπως:

"μεσ τον πρασινο το μυλο", "ο αιβαλιωτικος",  "η γκαρσονα",  "κανε λιγακι υπομονη", και καποια αλλα που εχετε ζητησει.
Επισης εχω βγαλει τα  "αντιλαλουνε τα βουνα", "αποψε ειναι βαρια",  "ειπα να σβησω τα παλια",  "γλυκοχαραζουν τα βουνα",  "δε θελω τα ματακια σου για μενανε να κλαινε",  και πολλα ακομα
το θεμα ειναι οτι αυτη την εποχη λογω δουλειας δεν εχω πολυ χρονο για να τα κανω ταμπλατουρες. σιγουρα ομως μεσα στις διακοπες θα μπορεσω να σας δωσω αρκετα


Τίτλος: Απ: Παρτιτούρες για Μπαγλαμά Τζουρά 3χορδο μπουζούκι...
Αποστολή από: marKiS στις Αύγουστος 02, 2010, 06:31:24 μμ
Rembeth δώσε πράγμα….. Rembeth δώσε πράγμα…..


Τίτλος: Απ: Παρτιτούρες για Μπαγλαμά Τζουρά 3χορδο μπουζούκι...
Αποστολή από: ΘΟΔΩΡΗΣ στις Αύγουστος 02, 2010, 07:59:31 μμ
ΡΕΜΠΕΤΗ είσαι κολώνα!!!! ;D

αν μπορέσεις να ανεβάσεις ενα απογευματάκι τουλάχιστον τα 4 που είπες που ζητήσαμε θα είμαστε χαρούμενοι!!!  ;)


Τίτλος: Απ: Παρτιτούρες για Μπαγλαμά Τζουρά 3χορδο μπουζούκι...
Αποστολή από: ΝΙΚ.Κ.ΠΟΥΛΑΚΗΣ στις Αύγουστος 02, 2010, 09:05:18 μμ
ΘΟΔΩΡΗ ΕΧΩ ΠΑΡΑΚΑΛΕΣΕΙ ΚΑΙ ΣΤΟ ΠΑΡΕΛΘΟΝ ΚΑΠΟΙΟΝ ΦΙΛΟ ΡΕΜΠΕΤΗ ΝΑ  ΑΝΕΒΑΣΕΙ
ΤΗΝ "ΠΡΙΓΚΗΠΕΣΣΑ".ΕΧΕΙ ΑΝΕΒΕΙ ΚΑΙ ΣΤΟ ΠΑΡΕΛΘΟΝ ΑΛΛΑ ΔΕΝ ΗΤΑΝ ΟΛΟΚΛΗΡΩΜΕΝΗ ΚΑΙ ΟΥΤΕ ΣΩΣΤΗ.ΘΑ ΗΜΟΥΝ ΥΠΟΧΡΕΟΣ ΑΝ ΤΗΝ ΑΝΕΒΑΖΕΣ.


Τίτλος: Απ: Παρτιτούρες για Μπαγλαμά Τζουρά 3χορδο μπουζούκι...
Αποστολή από: silou στις Αύγουστος 02, 2010, 09:16:17 μμ
γεια σε ολους! παρακολουθω το θεμα ως επισκεπτης εδω και δυο βδομαδες που εχω αγορασει τον μπαγλαμαδακο μου, δεν ξερω καθολου απο μουσικη, εχω μερακι μονο για να μαθω καποια τραγουδακια που μαρεσουν με τον τροπο που δειχνετε εσεις εδω..




θερμη παρακληση αν ειναι δυνατον να ανεβασετε


1) υμνους ομαδων
2) τον αυγουστο του παπαζογλου (αφου πλεον βγαζω αλανθαστα το κανεις εδω δεν τραγουδα , να εχω κατι να μου συμπληρωνει το ρεπερτοριο)
και τελος 3) το ζειμπεκικο της ευδοκιας


θερμες ευχαριστιες,ευχες για ενα καλο καλοκαιρι και την αγαπη μου


 πανος


Τίτλος: Το ζεϊμπέκικο της Ευδοκίας (Μάνος Λοΐζος)
Αποστολή από: tolisper στις Αύγουστος 03, 2010, 06:39:34 μμ
ΦΙΛΕ ''silou'' ΠΑΡΕ ΤΟ ΖΕΙΜΠΕΚΙΚΟ ΤΗΣ ΕΥΔΟΚΙΑΣ ΠΟΥ ΖΗΤΗΣΕΣ ΠΙΟ ΠΑΝΩ


ΤΟ ΖΕΙΜΠΕΚΙΚΟ ΤΗΣ ΕΥΔΟΚΙΑΣ

παιζεται με την 1η χορδη

---0--5-3-5-3-5-3--0--5-3-5-----0----5-3-5-3-5-3-0--3----0

---0--5-3-5-3-5-3--0--5-3-5-----0----5-3-5-3-5-3-0--3----0

--0-5-3-2--0-5-3-2--0-5-3-2---0-2-3-5-7----

--0-5-3-2--0-5-3-2--0-5-3-2---0-3-0-0-0

--7-8-7-8-7-8-7----5-5-3-5-7***----

--7-8-7-8-7-8-7----5-5-10-8-7***--

--0-0--2-3-5-5-5-5-3-3-2-2---0--0-0

--0-0--2-3-5-5-5-5-3-3-2-2---0--0-0

---0-5-3-5-3-5-3-0--5-3-5----0-5-3-5-3-5-3-0---3---0

---0-5-3-5-3-5-3-0--5-3-5----0-5-3-5-3-5-3-0---3---0


οπου εχει αστερακι πανω απο αριθμο σημαινει πατας πολλες φορες τη νοτα συνεχομενα..!!!


ΦΙΛΕ ΡΕΜΠΕΤΗΣ ΜΠΡΑΒΟΟ ΓΙΑ ΤΗΝ ΚΑΛΗ ΔΟΥΛΕΙΑ ΠΟΥ ΕΧΕΙΣ ΚΑΝΕΙ ΚΑΙ ΑΝ ΞΕΡΕΙΣ ΤΟ ΑΙΒΑΛΙΟΤΙΚΟ ΠΟΥ ΕΓΡΑΨΕΣ ΠΙΟ ΠΑΝΩ ΣΕ ΠΑΡΑΚΑΛΩ ΝΑ ΜΟΥ ΤΟ ΔΩΣΕΙΣ..!!!



www.youtube.com/watch?v=ezttNgBoo8c


Τίτλος: Απ: Παρτιτούρες για Μπαγλαμά Τζουρά 3χορδο μπουζούκι...
Αποστολή από: silou στις Αύγουστος 03, 2010, 07:37:37 μμ
 :o :o :o :o   εισαι γιγαντας μεγαλε!!!  :D :D :D χιλια ευχαριστω!


Τίτλος: Απ: Παρτιτούρες για Μπαγλαμά Τζουρά 3χορδο μπουζούκι...
Αποστολή από: jkoulou στις Αύγουστος 04, 2010, 04:07:07 πμ
Ευχαριστούμε θερμά!!!! :) :) :)
Αν κάποιος μπορεί ας ανεβάσει περισσότερα κομμάτια του Νίκου Παπάζογλου... :P
Υπάρχουν εξαιρετικά κομμάτια όπως  'Καλημέρα' , 'Στάλα-Στάλα', 'Νυχτερινό Β' και πάρα πολλά άλλα...

Πίνω κι άλλο ένα ουισκάκι στην υγειά σας... ;D


Τίτλος: Απ: Παρτιτούρες για Μπαγλαμά Τζουρά 3χορδο μπουζούκι...
Αποστολή από: nikkortis στις Αύγουστος 04, 2010, 03:04:53 μμ
ΘΟΔΩΡΗΣ φιλε μου εαν εχεις και αλλα απο Θαναση και Σωκρατη ανεβασε τα ρε φιλε να τρελαθουμε!!!! Θανασης ΘΕΟΣ και ο Σωκρατης πολυ καλος!
Επισης θα ηθελα να σου πω εαν τυχον ξερεις το Αλεξανδρα απο Θαναση Παπακωνσταντινου που το λεει μαζι με Κανα θα σου ειμουνα ευγνωμων! εδω ειναι οι στιχοι http://www.stixoi.info/stixoi.php?info=Lyrics&act=details&song_id=10765

ΕΥΧΑΡΙΣΤΩ ΦΙΛΕ!


Τίτλος: Απ: Παρτιτούρες για Μπαγλαμά Τζουρά 3χορδο μπουζούκι...
Αποστολή από: punkpagour στις Αύγουστος 05, 2010, 01:17:42 πμ
ειναι καποια κομματακια που μου εχουν κολησει,,,οποιος φιλος μπορει και τα δωσει θα ειναι φοβερος

-της γερακινας γιος(τσιτσανης)
-πεντε ελληνες στον αδη(παπαιωανου)
-ο τρελος(ακης πανου)
-7 νομα(ακης πανου)


Thnx προκαταβολικα ;)


Τίτλος: Καλημέρα (Νίκος Παπάζογλου)
Αποστολή από: jkoulou στις Αύγουστος 06, 2010, 02:32:35 μμ
Είναι το πρώτο που ανεβάζω και είμαι ακόμα πολύ αρχάριος...
Θα ήθελα ότι διορθώσεις βλέπετε να τις επισημάνετε... ;)
Το ξέρω οτι είναι πολύ απλό,αλλά οτι μπορεί ο καθένας προσφέρει... :)

Καλημέρα - Παπάζογλου Νίκος - Μουσική/Στίχοι: Παπάζογλου Νίκος/Σιμώτας Τάκης

12-10-8-7--5-3--5-7--12-10-8-7--5-7--0


3-3-4-4-4-3-1-3-5--12-10-8-7--5-7--0          X 2 φορές

Μόλις ξυπνήσω το πρωί
τα βλέπω όλα μαύρα
θέλω μια κούπα με καφέ
και τέσσερα τσιγάρα
 
Τι νόημα έχουν όλα αυτά
Τι τρέχω να προλάβω
Πέρασε η μισή ζωή
δίχως να καταλάβω
 
Τασάκι κι αποτσίγαρα
φλιτζάνι κατακάθι
όλα μαζί στον τενεκέ
κι απάνω το καπάκι
 
Μα φτάνω στην εξώπορτα
κοιτάζω τον καθρέφτη
κι αντί να ρίξω μια μπουνιά
χαμογελώ στον ψεύτη



www.youtube.com/watch?v=Z2sw9_iQhz4


Τίτλος: Απ: Παρτιτούρες για Μπαγλαμά Τζουρά 3χορδο μπουζούκι...
Αποστολή από: nikkortis στις Αύγουστος 06, 2010, 04:36:08 μμ
ρε παιδια υπαρχει περιπτωση για αυτο εδω ???????????????


www.youtube.com/watch?v=qe1XonkVU48


εκλιπαρω!!!!! θεικο κομματι... ε φανταστικε ΘΟΔΩΡΗ  ?


Τίτλος: Ο πράσινος μύλος (Μπάμπης Μαρκάκης)
Αποστολή από: ΡΕΜΠΕΤΗΣ στις Αύγουστος 06, 2010, 05:17:41 μμ
Άλα!!!!   να ζήσουν οι μάγκες


«Μες΄ τον πράσινο το μύλο»


5-5-5-7--8-7-5-7--8-7-5-7-8-10-8-7-7-7-10-8-7-5--7-5-3-5--7-5-3-5-7-8-7-5-5-5-8-7-5
-----------------------------------------------------------------------------------------
-----------------------------------------------------------------------------------------

3--5-3-2-3--5-3-2-3-5-3-2-3--2-----------3----2----3-2---3-2---------3----2----3-2--2-3-5
----------------------------------5--3-------------------5-----5-3-------------------5------
---------------------------------------------------------------------------------------------

Τραγούδι

  Μες τον πράσινο       το μύ-λο              μου τα παίρναν τακτι-κά
7--7-5-7--7-5-7-8-10-8-7-7-7-10-8-7-5--5-3-5--5-3-5-7-8-7-5-5-5-8-7-5
--------------------------------------------------------------------------
--------------------------------------------------------------------------

  μα τς τάχω πά--ρει  πί-σω      α--πό  μια---καλή--- ζαριά
3--3-2-------3--2-3-5--5--5--3--2-3-5-6-5-3-3-2-2---------3-2--
-------5--5-----------------------------------------5-5-5-5-----5
------------------------------------------------------------------

  μα τς τάχω πά--ρει πί-σω       α--πό  μια--- καλή--- ζαριά
---3-2-------3--2-3-5--5--5--3--2-3-5-6-5-3-3-2-2---------------
3------5--5-----------------------------------------5-5-5-5-5-5-3
------------------------------------------------------------------

3-3-2-3-5-6-5-3-3-2-2---------3-2--
-----------------------5-5-5-5-----5
-------------------------------------

μά--γκες μου  βάλ-τε         μπρος πί--σω    πά-τε
-----3----2----3-2--3-2---------3----2----3-2--3-2-
3------------------5----5-3--3----------------5----5
-----------------------------------------------------

   θα σας   τα--- πά-ρω     και  θα    ρε---φά--ρω
------3----2--3--5--5--5------3----2----3-2----------
3--3-----------------------3-----------------5--5--5--
-------------------------------------------------------



www.youtube.com/watch?v=lqBY3G4vA2w


Τίτλος: Απ: Παρτιτούρες για Μπαγλαμά Τζουρά 3χορδο μπουζούκι...
Αποστολή από: ΘΟΔΩΡΗΣ στις Αύγουστος 06, 2010, 06:35:49 μμ
ΡΕΜΠΕΤΗ φοβερός!!!!Αν μπορέσεις και ''γκαρσόνα'' και ''που να βρω γυναικα να σου μοιαζει'' με τον δικο σουθ τροπο θα ναι φοβερο!

nikkortis ο στυλίτης βγαίνει εύκολα νομίζω!θα το βγάλω απλά...

παίδες....το ''σαν απόκληρος γυρίζω'' δεν υπήρχε κάπου ανεβασμένο???γιατί δεν το βρίσκω πια...?είναι κάπου και δεν το πρόσεξα...?


Τίτλος: Απ: Παρτιτούρες για Μπαγλαμά Τζουρά 3χορδο μπουζούκι...
Αποστολή από: tolisper στις Αύγουστος 06, 2010, 08:14:14 μμ
ΜΑΓΚΕΣ ΣΑΣ ΞΑΝΑ ΘΥΜΙΖΩ ΓΙΑ ΤΟ ΑΙΒΑΛΙΩΤΙΚΟ ΖΕΙΜΠΕΚΙΚΟ !!!ΣΟΡΥ ΠΟΥ ΣΑΣ ΕΧΩ ΠΡΙΞΕΙ ΑΛΑ ΤΟ ΨΑΧΝΩ ΚΑΙΡΟ!!!
ΑΥΤΟ ΕΙΝΑΙ:http://www.youtube.com/watch?v=Voy8xjFA9ms&translated=1
ΠΟΛΥ ΜΑΓΚΙΑ ΜΙΛΑΜΕ


Τίτλος: Απ: Παρτιτούρες για Μπαγλαμά Τζουρά 3χορδο μπουζούκι...
Αποστολή από: ΡΕΜΠΕΤΗΣ στις Αύγουστος 06, 2010, 09:12:50 μμ
Τον αιβαλιωτικο θα σας τον δωσω μεχρι αυριο το απογευμα
το ιδιο και την γκαρσονα, και σιγα σιγα και τα αλλα που σας ειπα
επισης το αιβαλιωτικο το εχω ανεβασει στο youtube εδω

www.youtube.com/watch?v=962w7Hl0Agg


Τίτλος: Απ: Παρτιτούρες για Μπαγλαμά Τζουρά 3χορδο μπουζούκι...
Αποστολή από: nikkortis στις Αύγουστος 06, 2010, 10:52:33 μμ
Ρεμπετη μπραβο σου ρε φιλε!!!! να σαι καλα!


Θοδωρη αναμενω με αγωνια τον Στυλιτη και εδω θα δεις το ΣΑΝ ΑΠΟΚΛΗΡΟΣ (ηταν σελιδα 12)
http://www.diymusic.org/forumsmf/index.php?topic=2390.msg25815#msg25815
Περιμενω Στυλιτη! θα με κανεις χαρουμενο!  ;D

επισης εαν ξερει καποιος το τραγουδι η Ταμπακερα????? αρεσει πολυ στον πατερα μου και θελω να το μαθω




Τίτλος: Η γκαρσόνα (Πάνος Τούντας - Ρίτα Αμπατζή)
Αποστολή από: ΡΕΜΠΕΤΗΣ στις Αύγουστος 07, 2010, 01:43:42 μμ
Για το φίλο Θοδωρή


«Η ΓΚΑΡΣΟΝΑ»

11-12-12-12-12-12-12-12-11-12-------11-12-13-16-13-12-11----------11-12------   }
--------------------------------13---------------------------13-12-10------------   }
----------------------------------------------------------------------------------    }
                                                                                                                       }    Χ2
11--12--17--15--14--12--11------11-14-12-11-------------------------                    }
------------------------------13---------------13-12-10-9-10--5--10--                    }
-----------------------------------------------------------------------                    }

Τραγούδι
Η πιο    κα--λή γκαρσόνα ειμ΄   ε---γώ      για-τί  με  τέχ-νη όλους τους κερνώ
---5----7----8--8--7--5--8----8----8------8--8--7--10--8--7--5--5--4--5----------------------
5---------------------------------------------------------------------------6-5-4--5--6--5--4--
------------------------------------------------------------------------------------------------

κιαυτοί μου   λέ-νε μαναμ΄τι    σαι   συ      γλυκιά γκαρσό-να φέ-ρε μας κρασί
---5----7----8--8--7--5--8----8----8------8--8--7--10--8--7--5--5--4--5-----------3-4-
5-------------------------------------------------------------------------5-4-5-6-7-----
-----------------------------------------------------------------------------------------

   στα πετα-χτά       μοι--ρά--ζω τις   μι-σές       στο πιάτο κιο  με-ζές      μα--ρί--δα και---- τυρί
5--7--8--9--10----------10--10--8------8----------8--8--7------7-----12--12--7--8-7-5-4-5-----------3-4
--------------------10--------------10---------10-----------10------------------------------5-4-5-6-7----
-----------------------------------------------------------------------------------------------------------

    το-τε κιαυτοί      μου    δίνουν μπουρμπουάρ τους λέγωορεβου-άρ      και φεύγου----νε στουπί
5--7--8--9--10----------10--10--8------8---------8--8--7------7-----12--12--7--8-7-5-4-5------5--
--------------------10--------------10--------10-----------10--------------------------------5------
-----------------------------------------------------------------------------------------------------



www.youtube.com/watch?v=6Vekb7CVO2o


Τίτλος: Αϊβαλιώτικο ζεϊμπέκικο (Παραδοσιακό Μικράς Ασίας)
Αποστολή από: ΡΕΜΠΕΤΗΣ στις Αύγουστος 07, 2010, 04:42:53 μμ
Παραγγελιά του tolisper, ένα από τα καλύτερα και πιο βαριά ζειμπέκικα

«ΑΪΒΑΛΙΩΤΙΚΟ»

--------2-3-4-3-2----2-2--2-3--4-3-2-3-4-4-3-3-2-2--------2-3--4-3-2-4-3-----
3-3-3-5----------5-------5--------------------------5-5-3-5------------------3-
--------------------------------------------------------------------------------


-2-3-4-3-2----2----2-3--4-3-2-3-4-4-3-3-2-2--------2-3--------------
5----------5----3-5--------------------------5-5-3-5------6-5-3-5----
-----------------------------------------------------------------------


-----------------2-2---2-3--4-3-2-3-4-4-3-3-2-2--------2-3--4-3-2-4-3----
3-3-2-3-5-5-3-5-----5---------------------------5-5-3-5-------------------
----------------------------------------------------------------------------


-----------------2----2-3--4-3-2-3-4-4-3-3-2-2---------2-3--------------
3-3-2-3-5-5-3-5--3-5---------------------------5-5-3-5-------6-5-3-5----
--------------------------------------------------------------------------


7-8-10-11-10-8-7--7-8-10-8-7--------7-8-10-11-10-8-7--------------7-8-7--7-8-10----
8-----------------9------------9-8----8----------------9-8-9-8-7-8-9------9-----------
----------------------------------------------------------------------------------------


7-8-10-11-10-8-7--10-8-7-------------------------------------7-8-10-8-7--7------------
8-----------------9-------9-8-7-8--9-8-7-8-9-9-8-8-7-7-5-5--------------9--9-8-7-5----
-----------------------------------------------------------------------------------------


10-11-14-15-12-14-15-12-10-8-7-8-10-11-8-10-11-8-7--10-8-7---------------------2-3--4-3-2-4-3----
-------------------------------------------------------9-------9-8-9-7-8-7-6-5-3-5-------------------
-------------------------------------------------------------------------------------------------------


10-11-14-15-12-14-15-12-10-8-7-8-10-11-8-10-11-8-7--10-8-7-----------------------3-------------2
-------------------------------------------------------9--------9-8-9-7-8-7-6-5--5-3----6-5-3-5----
-----------------------------------------------------------------------------------------------------


3-2--------------------------2-3-4-4-3-3-2-2---------2-3--4-3-2-4-3---2
----5-3-2-0-----0-2-3-5-3-5------------------5-5-3-5-------------------
------------5--5---------------------------------------------------------


3-2----------------------2-3-4-7-4-7-4-3-3-2----------3--------------
----5-3-2-0-----0-2-3-5----------------------3-5--5-3-----6-5-3-5----
------------5--5-------------------------------------------------------



www.youtube.com/watch?v=K2qqg-PMNAg


Τίτλος: Απ: Παρτιτούρες για Μπαγλαμά Τζουρά 3χορδο μπουζούκι...
Αποστολή από: ΜΑΚΗΣ στις Αύγουστος 07, 2010, 06:41:48 μμ
Η ποιότητα της παύσης…(τρις εβδομάδες διακοπές)
ορίζει την ένταση…
Καλές διακοπές σε όλους
Τα λέμε τον Σεπτέμβρη


Τίτλος: Απ: Παρτιτούρες για Μπαγλαμά Τζουρά 3χορδο μπουζούκι...
Αποστολή από: ΘΟΔΩΡΗΣ στις Αύγουστος 07, 2010, 09:50:28 μμ
  ΡΕΜΠΕΤΗ χιλια ευχαριστω φιλαρακι!!!!


Τίτλος: Το πολλαπλό σου είδωλο (Χειμερινοί Κολυμβητές)
Αποστολή από: nikkortis στις Αύγουστος 08, 2010, 08:30:09 μμ
Χειμερινοι Κολυμβητες.

Το Πολλαπλο σου ειδωλο

-12----12-14-15-14-10-12-------12-14-15-14-10-14-12-12-10-14-12-15-14-------------12-
----12---------------------------------------------------------------------------------13-12-12-----15-10-15-13-12


Συχνάζεις στο "Μικρό καφέ"
κι εγώ στη Μυροβόλο
έτσι που όσο κι αν θέλουμε
ποτές δε θα ιδωθούμε

Εγώ ξυπνάω απ' τις εφτά
κι εσύ το μεσημέρι
κι όταν τινάζω τα χαλιά
στο βόλεϊ πάντα τρέχεις

Στην παμπ πηγαίνεις στις εννιά
κι εγώ έντεκα με μία
έτσι που όσο κι αν θέλουμε
ποτές δε θα ιδωθούμε

Μα πού θα πάει ο καιρός
κι οι βουρλισμένοι χρόνοι
θε να 'ρθει κάποιο σούρουπο
ξανά ν' ανταμωθούμε



www.youtube.com/watch?v=SyC9wvZb2Zc


Τίτλος: Απ: Παρτιτούρες για Μπαγλαμά Τζουρά 3χορδο μπουζούκι...
Αποστολή από: jkoulou στις Αύγουστος 09, 2010, 01:16:48 πμ
Ευχαριστώ!!! Τεράστια βοήθεια !


Τίτλος: Απ: Παρτιτούρες για Μπαγλαμά Τζουρά 3χορδο μπουζούκι...
Αποστολή από: silou στις Αύγουστος 10, 2010, 09:44:25 μμ
αντε να ξαναμαζευτειτε απτις διακοπες ρε παιδες να μας εμπλουτισετε το ρεπερτοριο!


Τίτλος: Απ: Παρτιτούρες για Μπαγλαμά Τζουρά 3χορδο μπουζούκι...
Αποστολή από: kyuss στις Αύγουστος 12, 2010, 05:19:49 μμ
Rempeth ap'oti vlepeis mas exeis kakomathei k mas exeis kanei aplhstous emena toulaxiston gi'auto tha s zhthsw otan exeis ton xrono k thn diathesh panw ap'ola to anoikse gt dn antexw....Euxaristw!!!!!


Τίτλος: Τι 'ναι αυτό που μας ενώνει [εισαγωγή] (Πυξ Λαξ)
Αποστολή από: jkoulou στις Αύγουστος 13, 2010, 01:47:49 πμ
Εγώ μάγκες σας παρακαλώ για την Πριγκιπέσσα του Σωκράτη... :P :P :P :P :P  Το θέλω πάρα πολυ αυτό το κομμάτι, αλλά δεν μπορώ να το βγάλω με το αυτί...  Έχει δωθεί και στο παρελθόν μια εκτέλεση που όμως δεν με βοήθησε... Ευχαριστώ!!!
Εγώ θα συνεισφέρω με την εισαγωγή απ΄αυτό το κομμάτι που προσπάθησα και βεβαίως θα έχει λαθάκια, αλλά είναι πιστεύω φιλότιμη προσπάθεια για έναν αρχάριο...

Τι 'ναι αυτό που μας ενώνει  --- Πυξ Λαξ

7-7-7-7-7-5-7---7-8-10-8-7-5-3-5---7-7-7-7-7-5-7---10--88--77--55--3---

5-5-5-5-5-3-5---5-7-5-3-5--0-2-3-3-2-5-3-2---0--7-5-7--3-7--2-7----0



www.youtube.com/watch?v=cHla5HbDJQ4


Τίτλος: Άνοιξε, άνοιξε (Γιάννης Παπαϊωάννου/Χαράλαμπος Βασιλειάδης - Σωτηρία Μπέλλου)
Αποστολή από: ΡΕΜΠΕΤΗΣ στις Αύγουστος 13, 2010, 12:46:41 μμ
«ΑΝΟΙΞΕ ΓΙΑΤΙ ΔΕΝ ΑΝΤΕΧΩ»

7-5-4-5-7-4-5---4-------------7-5-4-5-7-4-5--4---------4--4-5-7----
---------------6--5---0-5--5-----------------6--5-3-5-6---6---------
-----------------------------------------------------------------------

12-13-12-13-12--10-12-10-12-10--8-10-8-10-8--7-8-7-8-7--4-5-7-8-7-5-4------4-5-7-8-7-5-4--------7-5-4--
---------------------------------------------------------------------------6-5-----------------6-5-5--------6
------------------------------------------------------------------------------------------------------------

Στίχοι
  Το παρά-θυρο κλεισμέ----νο
---4-5-7--5--4-----7-5-4---------4-5-7-8-7-8-5-7-4-5--4------4-5-7-4
5---------------6--------6-5--5-6---------------------6--5-5-6--------
-----------------------------------------------------------------------

 σφαλισμένο σκο-------τει--νό
-------4--5--7--10--8--7-8-5-------5-8-12-12-12-12-13-12-10-8-7-5-7-8-9-
5--5-6----------------------------5-----------------------------------------
----------------------------------------------------------------------------

     για ποιο λό-γο  δεν       τ΄α--νοί---γεις
10--10-10-10--10--12------10--12-10-8------12-12-12-12-12-10-8-7-8-8-7-5-4--5
--------------------------------------------------------------------------------6-
----------------------------------------------------------------------------------

   πεισματάρα να---- σε   ι--δώ
4--4-5-7--5--4------4--5--7--------10--12-10-10-8-8-7-7-7-8-9
-----------------6----------------------------------------------
----------------------------------------------------------------

     για ποιο λό-γο  δεν       τ΄α--νοί---γεις
10--10-10-10--10--12------10--12-10-8------12-12-12-12-12-10-8-7-8-8-7-5-4--5
--------------------------------------------------------------------------------6-
----------------------------------------------------------------------------------

   πεισματάρα να   σε ι--δώ
4--4-5-7--5--7----5----4--------5-4-5-7-4-5---4----4-5-7-8-10
----------------------------------------------6--5-6------------
----------------------------------------------------------------

       ά-νοι-ξε--------------   ά-νοι-ξε-----------  γιατί δεν α--ντέ-------------------χω
12--12-12-12-10-12-13-10--10-10-10-9-10-12-8--8-7-8--10--12-13-10-12-8-10-7-8-5-7-8-9
--------------------------------------------------------------------------------------------
--------------------------------------------------------------------------------------------

     φτάνει πια---------- φτάνει πια------- να με τυραννάς
10--10-10-10-9-10-12-8--8-8-8-7-8-10-7--7-5-4--5--7--10--9--8--7-7-8-10
---------------------------------------------------------12-11-10--9-------
----------------------------------------------------------------------------

       ά-νοι-ξε -------------   ά-νοι-ξε------------ γιατί δεν α--ντέ-------------------χω
12--12-12-12-10-12-13-10--10-10-10-9-10-12-8--8-7-8--10--12-13-10-12-8-10-7-8-5-7-8-9
--------------------------------------------------------------------------------------------
--------------------------------------------------------------------------------------------

      φτάνει πια----------φτάνει πια--------να με τυραννάς
10--10-10-10-9-10-12-8--8-8-8-7-8-10-7--7-5-7--5--4-12-10-8-7-5-4--------
-----------------------------------------------------------------------6-5----
------------------------------------------------------------------------------



www.youtube.com/watch?v=CHPdaeABkQw


Τίτλος: Απ: Παρτιτούρες για Μπαγλαμά Τζουρά 3χορδο μπουζούκι...
Αποστολή από: sakis pinezopoulos στις Αύγουστος 14, 2010, 01:56:10 πμ
Άλα!!!!   να ζήσουν οι μάγκες


«Μες΄ τον πράσινο το μύλο»


5-5-5-7--8-7-5-7--8-7-5-7-8-10-8-7-7-7-10-8-7-5--7-5-3-5--7-5-3-5-7-8-7-5-5-5-8-7-5
-----------------------------------------------------------------------------------------
-----------------------------------------------------------------------------------------

3--5-3-2-3--5-3-2-3-5-3-2-3--2-----------3----2----3-2---3-2---------3----2----3-2--2-3-5
----------------------------------5--3-------------------5-----5-3-------------------5------
---------------------------------------------------------------------------------------------

Τραγούδι

  Μες τον πράσινο       το μύ-λο              μου τα παίρναν τακτι-κά
7--7-5-7--7-5-7-8-10-8-7-7-7-10-8-7-5--5-3-5--5-3-5-7-8-7-5-5-5-8-7-5
--------------------------------------------------------------------------
--------------------------------------------------------------------------

  μα τς τάχω πά--ρει  πί-σω      α--πό  μια---καλή--- ζαριά
3--3-2-------3--2-3-5--5--5--3--2-3-5-6-5-3-3-2-2---------3-2--
-------5--5-----------------------------------------5-5-5-5-----5
------------------------------------------------------------------

  μα τς τάχω πά--ρει πί-σω       α--πό  μια--- καλή--- ζαριά
---3-2-------3--2-3-5--5--5--3--2-3-5-6-5-3-3-2-2---------------
3------5--5-----------------------------------------5-5-5-5-5-5-3
------------------------------------------------------------------

3-3-2-3-5-6-5-3-3-2-2---------3-2--
-----------------------5-5-5-5-----5
-------------------------------------

μά--γκες μου  βάλ-τε         μπρος πί--σω    πά-τε
-----3----2----3-2--3-2---------3----2----3-2--3-2-
3------------------5----5-3--3----------------5----5
-----------------------------------------------------

   θα σας   τα--- πά-ρω     και  θα    ρε---φά--ρω
------3----2--3--5--5--5------3----2----3-2----------
3--3-----------------------3-----------------5--5--5--
-------------------------------------------------------




Σε ευχαριστω εσενα προσωπικα φιλε που το ανεβασες , οπως σας ευχαριστω ολους για τα τραγουδια που εχετε ανεβασει κατα καιρους . Συνεχιστε την καλη δουλεια  ;D


Τίτλος: Απ: Παρτιτούρες για Μπαγλαμά Τζουρά 3χορδο μπουζούκι...
Αποστολή από: nickthegreek στις Αύγουστος 15, 2010, 03:06:15 μμ
Μήπως ξέρει κάποιος από Μπίνη το "πάτερ ημών";
http://www.youtube.com/watch?v=D_StYTCEhGA (http://www.youtube.com/watch?v=D_StYTCEhGA)

Ευχαριστώ εκ των προτέρων...


Τίτλος: Απ: Παρτιτούρες για Μπαγλαμά Τζουρά 3χορδο μπουζούκι...
Αποστολή από: thodoris στις Αύγουστος 17, 2010, 01:18:02 μμ
 Ωρα να ζητησω κ εγω κατι  :D  οποιος ξερει ή μπορει να βγαλει το " η συνελευση των ποντικων " απο κατσιμιχα.Νομιζω πως αξιζει να το περασουμε..


Τίτλος: Απ: Παρτιτούρες για Μπαγλαμά Τζουρά 3χορδο μπουζούκι...
Αποστολή από: thodoris στις Αύγουστος 17, 2010, 02:04:41 μμ
  Τωρα που μου 'ρθε ας ζητησω και μερικα ακομα που μ'αρεσουν πολυ " τα νεα της Αλεξανδρας ", " η μαμα μου η αγορα " και " τα παιδια της γειτονιας σου με πειραζουνε "
Ευχαριστω


Τίτλος: Απ: Παρτιτούρες για Μπαγλαμά Τζουρά 3χορδο μπουζούκι...
Αποστολή από: Gaougalos στις Αύγουστος 18, 2010, 07:42:54 μμ
Πολύ ωραίο topic. Μπράβο.
Και μια επιθυμία. Τον Ερωτόκριτο τον έχουμε;


Τίτλος: Απ: Παρτιτούρες για Μπαγλαμά Τζουρά 3χορδο μπουζούκι...
Αποστολή από: sakis pinezopoulos στις Αύγουστος 20, 2010, 12:31:24 πμ
Καλησπερα θα ηθελα παρακαλω αν μπορεις καποιος να ανεβασει την εισαγωγη του τραγουδιου "Ο μαρκος υπουργος" του μαρκου βαμβακαρη. Εχει ξαναανεβει αλλα ειμαι σχεδον σιγουρος οτι ειναι λαθος ή ελλιπης.

Επισης θα ηθελα αν μπορει καποιος στο τραγουδι του θαναση παπακωνσταντινου "Πεχλιβανης" να μου πει πως αποδιδεται το μερος του τραγουδιου που λεει " Βρε αμαν αμααααν" . Στην ταμπλατουρα που εχει ανεβει στις πρωτες σελιδες εμφανιζεται ως -0-8-7-8-5-7-3-0- αλλα ετσι οσο και να το προσπαθω δεν μου βγαινει...

Ευχαριστω εκ των προτερων


Τίτλος: Απ: Παρτιτούρες για Μπαγλαμά Τζουρά 3χορδο μπουζούκι...
Αποστολή από: ρεύομαι στις Αύγουστος 20, 2010, 11:12:20 πμ
Καλησπερα θα ηθελα παρακαλω αν μπορεις καποιος να ανεβασει την εισαγωγη του τραγουδιου "Ο μαρκος υπουργος" του μαρκου βαμβακαρη. Εχει ξαναανεβει αλλα ειμαι σχεδον σιγουρος οτι ειναι λαθος ή ελλιπης.
για δοκίμασε αυτό και πες μου  :)
7-7-7-8-9-10-10-9-10-12-10-8-7-10-8-7-6-7---------------------------------------------
8----------------------------------------------------------------------------------------
10---------------------------------------------------------------------------------------


Τίτλος: Απ: Παρτιτούρες για Μπαγλαμά Τζουρά 3χορδο μπουζούκι...
Αποστολή από: thodoris στις Αύγουστος 20, 2010, 04:35:32 μμ
 Η εισαγωγη για τον Μαρκο Υπουργο παει ως εξης :
 
    8--8-7-8--9--10-12-10-9-10--12--10--8-7-10-8-7--6-7

 Αν θελετε περναω ολο το τραγουδι..


Τίτλος: Απ: Παρτιτούρες για Μπαγλαμά Τζουρά 3χορδο μπουζούκι...
Αποστολή από: sakis pinezopoulos στις Αύγουστος 20, 2010, 07:43:55 μμ
σας ευχαριστω και τους 2 για την απαντηση .
@Thodoris αν μπορεις να το ανεβασεις θα σου ειμαι υποχρεος θα το θελουν και αλλοι φανταζομαι


Τίτλος: Ο Μάρκος υπουργός [2] (Μάρκος Βαμβακάρης, "Φράγκος")
Αποστολή από: thodoris στις Αύγουστος 22, 2010, 03:25:12 πμ
             Οι Πρωθυπουργοι (Ο Μαρκος Υπουργος )
  Μουσικη/Στιχοι : Μαρκος Βαμβακαρης

 Εισαγωγη

 1η : 8--8-7-8-9--10-12-10-9-10--12--10-8-7-10-8-7-6-7--7-7-7-7-7-7-7-

 1η : 8--8-7-8-9--10-12-10-9-10--12--10-8-7-10-8-7-6-7--7-7-7-7-7-7-7-

 1η: 12--12-7-8--5--7--3--5--2--3--3-0-2---0--0-2-3--5--7--------------
 2η: --------------------------------------4------------------------------

 1η: 12--12-7-8--5--7--3--5--2--3--3-0-2---0--0-0-0-0-0-0-0------------
 2η: --------------------------------------4------------------------------

 1η : 8--8-7-8-9--10-10-10-9-10--12--10-8-7-10-8-7-6-7--7-7-7-7-7-7-7-

 1η : 8--8-7-8-9--10-10-10-9-10--12--10-8-7-10-8-7-6-7--7-7-7-7-7-7-7-

 1η : ----12-12-10--8--7-7----------------------------0-2-3--5--7--------
 2η :12---------------------10--8--7-7-8--8-5-7--4-5---------------------

 1η : ----12-12-10--8--7-8-7----------------------------------------------
 2η :12-----------------------10-8--7--8-10-8-7-8-5-7-4-5--5-5-5-5-5-5-5

 Λογια

       Ο-σοι--γινουν...
 1η : ---12--7--8--5--7--3--5--2--3--0--2---0--2-3--5--7-----------------
 2η :12------------------------------------4-------------------------------

 1η : 7--10--7--8--5--7--3--5--2--3--0--2---0----0---0-------------------
 2η : --------------------------------------4----0--0----------------------

 1η : 7--10--7--8--5--7--3--5--2--3--0--2---0-2-3--5--7------------------
 2η : --------------------------------------4------------------------------

 1η : 7--8--7--8--5--7--3--5--2--3--0--2---0----0---0--------------------
 2η : -------------------------------------4----0--0-----------------------



www.youtube.com/watch?v=vzbioUlB7iM


Τίτλος: Απ: Παρτιτούρες για Μπαγλαμά Τζουρά 3χορδο μπουζούκι...
Αποστολή από: Γιάννης Γεωργίου στις Αύγουστος 22, 2010, 09:32:43 πμ
Συγχαρητήρια για την καταπληκτική δουλειά σε όλα τα παιδιά που ανεβάζουν ταμπλατουρες.  Ανακάλυψα πρόσφατα
το φόρουμ και ενθουσιάστηκα!!
Μήπως κάποιος έχει το "Ο,τι και αν πω δεν σε ξεχνώ"; 
Ευχαριστώ


Τίτλος: Απ: Παρτιτούρες για Μπαγλαμά Τζουρά 3χορδο μπουζούκι...
Αποστολή από: ΘΟΔΩΡΗΣ στις Αύγουστος 22, 2010, 07:31:50 μμ
Παίδες έβγαλα κι άλλο κομμάτι από σωκράτη μάλαμα,''τα παιδιά μες στην πλατεία''...

www.youtube.com/watch?v=uOGCPiL1EJ4


θα το ανεβάσω σύντομα..


Τίτλος: Ένας μάγκας στον τεκέ μου (Κώστας Τζόβενος - Ρόζα Εσκενάζη)
Αποστολή από: thodoris στις Αύγουστος 24, 2010, 05:23:25 πμ
  Μια παλαιοτερη παραγελλια του Megasteve
        Ενας Μαγκας Στον Τεκε Μου
 Κωστας Τζοβενος

 Εισαγωγη

 1η :--------------2--------------6-5--4--5-6-5-4-5-2-4---2--------
 2η :-3---3-------------4--3--3--------------------------4---3-4-2-
 3η :---------5-----------------------------------------------------

 1η :--------------2-----------------3-2----------------------------
 2η :-3---3-------------4--3--2-3-4-----4-3-2-3-----3-----3--------
 3η :--------5-------------------------------------5----5------------

  Λογια

             Ε-νας  μα-γκας στο---ν   τε-κε----------μου
 1η :-----2--3---5---5---5--6--5--4--5--6--3--5--3-----------------
 2η :-3--------------------------------------------------------------

             τσακι  σε-----  τον α-------ργι-λε----------μου
 1η :-----2--3--5--6--5--4--5--2--------2---------------------------
 2η :-3----------------------------4--3-----4--3--2--3--------------


 1η :-----2--3---5---5---5--6--5--4--5--6--3--5--3-----------------
 2η :-3--------------------------------------------------------------

 1η :-----2--3--5--6--5--4--5--2--------2---------------------------
 2η :-3----------------------------4--3-----4--3--2--3--------------

             πε---τα  ξε  και  το-----   κα  λα---------μι
 1η :-----2---------------5--2--3---------6-5--4--5-----------------
 2η :-3-----4--3--2---3------------4--3-----------------------------

            και    με  α   φη  σε-------χαρμα----------νη
 1η :-----2---------------5--2--3-----2-----------------------------
 2η :-3-----4--3--2---3------------4-----4--3--2--3-----------------



www.youtube.com/watch?v=dOo98zosMYI


Τίτλος: Οι σφουγγαράδες (Γιώργος Μπάτης - Στράτος Παγιουμτζής, "Τεμπέλης")
Αποστολή από: thodoris στις Αύγουστος 25, 2010, 04:08:53 πμ
  Και μερικα ακομα που ζητηθηκαν  :)

  Οι Σφουγγαραδες
 Γιωργος Μπατης

 Εισαγωγη (2 φορες)

 1η :-0---8--10--7---5---3---5---8--7---5---3---3--5---3---1---0---0--1---3---5---7-

 
 1η :-0---8--10--7---5---3---5---8--7---5---3---3--5---3---1---0------0------0------
 2η :-----------------------------------------------------------------0-----0---------

  Λογια

              οι__________καη  με    νοι___      οι   σφου γγαρα     δες
 1η :-0---10--12--10---8---7----7----0----12---10---8---7----7----------------------
 
              ει__________ναι    ο     λοι___       βρε κου  βαρ  ντα   δες
 1η :-0---10--12--10---8---7----7----0----12---10---8---7----7----------------------

             τρω______νε   ο______λα        τα_______λε  φτα___________τους
 1η :-0---7--8--7---5---3---5---7---5---3--5--3---1---0---1---3---5---7-------------

             φευ_____γουν πα_____νε_____στη______δου λεια  τους
 1η :-0---7--8--7---5---3---5---7---5---3--5--3---1---0----0------------------------



www.youtube.com/watch?v=Mb-4aOwlKDY


Τίτλος: Απ: Παρτιτούρες για Μπαγλαμά Τζουρά 3χορδο μπουζούκι...
Αποστολή από: thanos2121 στις Αύγουστος 25, 2010, 03:21:32 μμ
Μπραβο φίλε thodoris. Σε πάω με χίλια. Τέτοια τραγουδάκια είναι ωραία. Ότι έχεις να δώσεις σε αυτό το στυλ, είναι τέλειο....


Τίτλος: Απ: Παρτιτούρες για Μπαγλαμά Τζουρά 3χορδο μπουζούκι...
Αποστολή από: alterna στις Αύγουστος 28, 2010, 08:14:50 μμ
Φίλε Ρεμπέτη σε κάποιο post ανέφερες ότι θα ανεβάσεις το τραγούδι του Τσιτσάνη
''Δε θέλω τα ματάκια σου για μένανε να κλαίνε''..πρόκειται περί εξαιρετικού άσματος
κατά τη γνώμη μου και αναμένω να το ανεβάσεις..


Τίτλος: Απ: Παρτιτούρες για Μπαγλαμά Τζουρά 3χορδο μπουζούκι...
Αποστολή από: kyuss στις Αύγουστος 31, 2010, 10:44:14 πμ
to ti pathos ateleiwto to thelete????


Τίτλος: Απ: Παρτιτούρες για Μπαγλαμά Τζουρά 3χορδο μπουζούκι...
Αποστολή από: alterna στις Αύγουστος 31, 2010, 04:47:52 μμ
to ti pathos ateleiwto to thelete????

Kαι το ρωτάς??


Τίτλος: Στυλίτης/Μιλώ για σένα/Αλεξάνδρα (Θανάσης Παπακωνσταντίνου)
Αποστολή από: υποβρύχιο στις Αύγουστος 31, 2010, 06:38:21 μμ
Τρία κομμάτια απο τα λάφυρα του θανάση, μόνος μου τα χω βγάλει οπότε διορθώνετε και σείς.
εκέι που έχει "(x)" είναι τα ακκόρντα, τα παίζει οποιος μπορεί και του αρέσουν! επίσης όπου έχει "/" είναι τσαλίμι, σλάιντ ρε παιδί μου.

Στυλίτ'ς

εισαγωγή: (τουρουν-τουραν)
------2-------4--------|-----2-------4---------
------2----2--2--------|-----2----2--2---------
---2--2-------0--------|--2--2-------0---------

λόγια:
-----2---- -0--------
----(2)----(2)--------
----(2)----(4)--------
      παααα   νω

-------(4)---(4)------(0)---|-----2-------0-----0-|-(4)-(4)--0-----(0)--------|
-----2/-4-4---4--2-4--2----|----(2)-----(2)-------|--4--4-----2/-4-2--------|
-------(4)---(4)------(4)---|----(2)-----(4)-------|-(4)-(4)--------(4)--------
     σταλυτα σου τα μα λιά           φωωω λια      ζουν  λαμπι ρι    ι   ι  δες          

-----2----2--4------4--4-|--2--0--2--2--0----(0)---|-----2--2-0---4------4----|
----(2)------(2)----------|-(2)----(2)-------4--2----|----(2)------(2)-----------|
----(2)------(0)----------|-(2)----(2)---------(4)---|----(2)------(0)-----------|
      παα   νω στα     αα μα   το  ο   ο  κλα δα  α  α             εσυσεα   νε        βα

--2---0--2--2--0--------|-----1--1--1--2----2---|--4----7--7--5/-7-4--2----|
-(2)----(2)----(2)-------|----(2)-------(2)-------|-(2)-----------------(2)----|
-(2)----(2)----(4)-------|----(4)-------(2)-------|-(1)-----------------(2)----
 σμε   ε  ε   ε  νος                 παι ζειςλα ου     το      με     ε   φτε ροο  ο  ο

-----1--1--1--2----2---|--0-----------0-----------|-----1--1--1--2-----2---|
----(2)-------(2)-------|-(2)--4-2--4-(2)---4-5----|----(2)-------(2)--------|
----(4)-------(2)-------|-(4)----------(4)- --------|----(4)-------(2)--------
      και γω τα μα    τια      κλει ει ει   ει νω   ω               γλι στραςαπο     τα

--4----7--7--5/-7-4--2----|-----2--2--2--9------9--|--7---5-4/-5-2--0----4----|
-(2)-----------------(2)---|----(2)-------(9)---------|---------------(2)--(4)----|
-(1)-----------------(2)---|----(2)-------(9)---------|---------------(4)--(4)----
βλε    εε  φα  ραα  α   α            και στο κο ρμι      σα    φη    η  η η νω ω     ω

και το τελευταίο(τουρουρου-ρου-ρου):

-(0)-----------(4)--------|--2----4--5--4/-5-2--0-----------|
--2--2-2-1--2--4---------|-(2)---------------------4--------|
-(4)-----------(4)--------|-(2)------------------------------

-(0)-----------(4)--------|------------------0----||
--2--2-2-1--2--4---------|--5--2/-4-2--4--(2)----||
-(4)-----------(4)--------|-----------------(4)----||



www.youtube.com/watch?v=qe1XonkVU48




Μ'λώ για Σ'να

εισαγωγή (τα-ρα-ρα ραραρααα):
--4------4------4----|
-(2)------------------|
-(0)------------------
 ταα       ρα      ρα

--2/-4-2-(5)-----------0--|--1------1------1----|--2------2------2----|
----------5---------------|-(2)------------------|-(2)------------------|
---------(5)--------------|-(4)------------------|-(2)------------------|
 ρα ρα ρα ρααααα                 ρα      ρα        ρα         ρα        ρα     ρα

και μετά τα δύο πρώτα μένουν ίδια και μπαίνει

--2--0-0-----|-(0)---
-----------4-|--2----
-------------|-(4)----

λόγια:

|---------4------4--4---|--2/-4-2---(5)-----------0--|
|0-2-----(2)-------------|-----------5--------------|
|-(0)----(0)-------------|----------(5)--------------|
μι-λώ      με      τα-ψη       λα  α α   αααα              τα

--2------2-------------|--0------0-----------|-(2)----(2)--0----2----|
-(2)-----------0--2--4-|--(0)----(0)------0--|--0------0------------|
-(2)-------------------|--(4)----(4)----------|-(2)----(2)------------|
πααα     τηη     τα βουου   ναα                   και   τους    μιι  λω   για

--4------4-----------------|
--------(2)----------------|
--------(0)-----------------|
σεε     νααα    

μετα το ίδιο και στα "πετρινα γιοφύρια" αλλάζει και γίνεται:

        |--0------0--------0--|--0---------4----4--|
        |-(0)----(0)-----------|-(0)-----0-(0)--(0)--|
        |-(4)----(4)-----------|-(4)-------(0)--(0)--|
 τοξοοο τά                   σαν   πεεε     τρι νά    γιο

-4---2/-4-2--0----(0)----|                       --0------0------0----|--4------4------4----|
----------------4--2-----|    ρεφρέν--->   --2------2------2----|--4------4------4----|
------------------(4)----|                        --4------4------4----|--4------4------4----
φυ   υ  υ  υ     υυ ριά                                 να    να     να   να        να να να να

--0------0------0----|--4------4----2--4--5--|--7----7--5/-7-4----2--4--|
--2------2------2----|--4------4-------------|--(5)-----------------------|
--4------4------4----|--4------4-------------|--(4)------------------------
ναααα    να να να           να  να να τουρουροου  ρου    και μαα  πα    ντη  σαν


--4------4------4--5--|--7----7--5/-7-4----2----|--9------7/-9-5---4----|
-(2)-----(2)-----------|-(5)----------------------|-(7)--------------(5)----|
-(0)-----(0)-----------|-(4)----------------------|-(5)--------------(7)----|
->σαν                τουρου ρου   τα γε ε  φυ   ρια       χοοοο   ρταα ρια  ζουν

--7----7--5/-7-4----2----|--4------4---------0--|--2----2--0--0--------(0)--|
-(5)----------------------|-(2)-----(2)-----4-----|-(2)---------------4---2--|
-(4)----------------------|-(0)-----(0)-----------|-(2)-------------------(4)-|
          α  μοιη  ρη   ψυ         χη                  τα-ρα   μη    ξε   γε ε      λα  στείς



www.youtube.com/watch?v=TrsRIvPZMQk




'Λεξάντρα για τον φίλο που τον ζήτησε, να το παίξει κιαυτος στην αλεξάνδρα του


εισαγωγή (να να να να):

--5--5----5--7----7--5--|--9------7/-9-5--4--2-----|--5--5----5--7----7--5--|-7---2--2--4
--5--5-------7----------|--7------------------------|--5--5-------7----------|-7-----------
--5--5-------7----------|--5------------------------|--5--5-------7----------|-7----------
 να  να     να να    να να    ναααααα ταρα ρα ρα ρα         να να    να  να   να να

και στο κλείσμο της εισαγωγής

-----4--4--4--5/4/2--4/2/1----2--|---4--4--4--5/-4/-2--4/-2/-1--2---|
-------------------------------3--|-------------------------------2----|
-------------------------------5--|-------------------------------2---|


-----5--5--5--7--5/-7/-4/--2--|-----5--5--5--7--7/-5/-4/--2--|
------------------------------|------------------------------|
------------------------------|------------------------------|
      τα  φυ λα εί  ει ει  ναι   αι          κοο ο   κι  να  α α α      α

-----9--7/-9-5-----4--5--4/-5-4--2-|--2------4--5--7--9--7--|
------------------------------------|------------------------|
------------------------------------|------------------------|
     φυ  λα α του    φθι ι    ιι         νο    πω      ω  ω  ρου ου ου ου

ίδιο μέχρι το "κάλτσα του διαβόλου", οπου πάει:

--------1--2--4----5--4/-5-|--9--------9----|-----------0--2--0--2--0--|-------------------
-----2---------------------|----------------|-----2--3-----------------|--3--2/-3-2--------
---------------------------|----------------|--------------------------|-------------------
     και καλτσατου   δι α  αα     βοοοοοολουυυ          να να να να να να να   να   νανανα

|-----0--0--0--0----0-----|-----2----2--2----|
|----------------------3--|------------------|
|-------------------------|------------------|
       σε τη  χω ρα    ει   ο          κι σα βος               (το ίδιο και ο "τόπος")

|-----2--4--5--7----9----|
|------------------------|
|------------------------|
      κιαν της μι λαας γιαα

-----9-----5-3/-5-3----2--|-----2--7--5--7----2----|--0----------------------|
---------------------------|------------------------|-----3/-5/-3--2/-3/-2----|
---------------------------|------------------------|-------------------------|
    συυυ   νε ση  η η     η            χαμε νος παει   ο        κο  ο ο  ο     ο ο πος...

-----9--13--10/-13-9--7/-9-5--4--|--2----2--2--7----9----|
----------------------------------|-----------------------|
----------------------------------|-----------------------|
       να  να    ναα   να  να  να να να    τα ρα          ραα ρααα

-----9--13--10/-13-9--7/-9-5--4--|--2----2--2--2--2--2--4--|
----------------------------------|-------------------------|
----------------------------------|-------------------------|
                                                                        του ρου ρου

-----5----5-------5----|-----5----5-------5----|--5----9--7--9--7/-9-7----|
-----5----5-------5----|-----5----5-------5----|--5-----------------------|
--5----------5----5----|--5----------5----5----|--5-----------------------|
ρου   εεεεεεεεεεεεεεεεεεεεεεεεεεεεεεεεεεεεεεεεεεε          αα λε  ξα νδρααα

--7----7--7--2--4--5----|--5----9--7--9--7/-9-7--5--|--7-----------2--2--4--|
--7---------------------|--5--------------------------|--7--------------------|
--7---------------------|--5--------------------------|--7--------------------|
ααα    σα  λα μα α  νδρα            τι   κα  κο ειειειει   να  αυτόο             παμ παμ παμ

--5----9--7--9--7/-9-7----|--7----7--7--2--4--5----|
--5-----------------------|--7---------------------|
--5-----------------------|--7---------------------|
παμ   για τι   πη γεεεες                 μαλλονα α  ντρα

--5----5--4--7--5/-7-3---2--------||
--7------------------0---2--------||
--9------------------0---2--------
          πα λιο κο    ρ ι ι ι τσο



www.youtube.com/watch?v=TrsRIvPZMQk


ΥΓ. στον στυλίτη μπέρδεψα τα λόγια


Τίτλος: Απ: Παρτιτούρες για Μπαγλαμά Τζουρά 3χορδο μπουζούκι...
Αποστολή από: Βουτσελας στις Σεπτέμβριος 01, 2010, 02:15:50 μμ
Μπραβο παιδια ειμαι καινουριος στην παρεα και θα ηθελα να ζητησω τον σαλταδορο


Τίτλος: Απελπίστηκα (Μάρκος Βαμβακάρης, "Φράγκος" - Γρηγόρης Μπιθικώτσης)
Αποστολή από: kyuss στις Σεπτέμβριος 02, 2010, 10:19:00 πμ
        TI PATHOS ATELEIWTO (APELPISTHKA)  M.VAMVAKARIS

EISAGWGH

10-10-10-12-14-12-10-9-10-12-14-17-15-14-12-10-8-7-5-5/6-6-6-5-3-2-1----0-0-2-3-5-7
---------------------------------------------------------------------------3--------------
------------------------------------------------------------------------------------------


10-10-10-12-14-12-10-9-10-12-14-17-15-14-12-10-8-7-5-5/6-6-6-5-3-2-1----0-0-2-3----0
---------------------------------------------------------------------------3-----------0---
--------------------------------------------------------------------------------------------

KOUPLE

10-10-10-12-{{12}}--12-12-12-12--10-13-12-10-8-7-5-10/12-12-12-12-12-10-8-10-12-10-8-7-8-10-7-10-12-12-10-8-7-5-5/6-6-6-5-3-2-1-{3}--0-0-2-3-2-3-5-6-6-6-6-5-3-2-1-{3}--0
x2

REFRAIN

6-6-6-5-5-5-3-3-3-1-1-1-0-2-3-5-7-3-5-2-0-0-0-0-7-7-7-7-7-7-7
------------------------------------------------------------------
------------------------------------------------------------------

5-6-6-6-5-5-5-3-3-3-1-1-1---0-2-3-5-7-3-5-2-0-0-0-0-0-0-0-0-0-0
----------------------------3---------------------------------------
--------------------------------------------------------------------

{}la
{{}}re
anagkasthka na tis valw etsi sto kouple gt htan megalo keimeno..

5/6
th deuterh nota thn 6 dhladh thn paizeis svhsth xwris penia...



www.youtube.com/watch?v=YsKh-0AyGGI


Τίτλος: Απ: Παρτιτούρες για Μπαγλαμά Τζουρά 3χορδο μπουζούκι...
Αποστολή από: nikkortis στις Σεπτέμβριος 02, 2010, 11:20:01 μμ
υποβρύχιο εισαι απαιχτος.... αυτα τα τραγουδια και τα 3 πρεπει να τα μαθω οπως και δηποτε.. ειναι φοβερα... ομως κατι δεν μπορω να καταλαβω,.... δεν μπορω να τα βγαλω με τιποτα... δεν καταλαβαινω αμα ειναι συγχορδιες ή οχι... δεν ανεβαζεις και κανενα βιντεακι πως τα παιζεις... να δουμε τα χερια σου ? εισαι Θεος... το πρωτο βημα εγινε.... αλλα πρεπει να τα βγαλουμε κι ολας


Τίτλος: Απ: Παρτιτούρες για Μπαγλαμά Τζουρά 3χορδο μπουζούκι...
Αποστολή από: υποβρύχιο στις Σεπτέμβριος 03, 2010, 11:42:04 πμ
Βγάλτο χωρίς τις παρενθέσεις αρχικά και μετά όπου σου κολλάει στο αυτί χώνε τες. συγχορδίες είναι, ναι!


Τίτλος: Απ: Παρτιτούρες για Μπαγλαμά Τζουρά 3χορδο μπουζούκι...
Αποστολή από: nikkortis στις Σεπτέμβριος 03, 2010, 05:56:45 μμ
Βγάλτο χωρίς τις παρενθέσεις αρχικά και μετά όπου σου κολλάει στο αυτί χώνε τες. συγχορδίες είναι, ναι!

ok ευχαριστω για την βοηθεια.... θα το προσπαθησω! εσυ εδω να μας πες τα κολπα!  ;D ανεβαστε πραγμα παιδες!!!!!!!!!!!!!


Τίτλος: Απ: Παρτιτούρες για Μπαγλαμά Τζουρά 3χορδο μπουζούκι...
Αποστολή από: Steve da Greek στις Σεπτέμβριος 06, 2010, 02:40:26 πμ
Γεια σας μάγκες.Να σας πω ένα μεγάαααααλο ευχαριστώ και πολλά μπράβο
 απ'την παγωμένη Αγγλία για την προσπάθεια αυτή.
Είναι εύκολο μήπως να βρεθεί το Φεγγάρι μάγια μου' κανες?


Τίτλος: Απ: Παρτιτούρες για Μπαγλαμά Τζουρά 3χορδο μπουζούκι...
Αποστολή από: ΘΟΔΩΡΗΣ στις Σεπτέμβριος 06, 2010, 04:24:57 μμ
Χάθηνα λιγάκι........έμφαση σε Σωκράτη και Θανάση....ανεβάζω όπου να 'ναι ''τα παιδια μες στην πλατεία'' από Μάλαμα και ''παξιμάδια'' από Θανάση.


Τίτλος: Απ: Παρτιτούρες για Μπαγλαμά Τζουρά 3χορδο μπουζούκι...
Αποστολή από: Αγγελος στις Σεπτέμβριος 06, 2010, 05:33:37 μμ
Καταρχας συγχαρητηρια για το φόρουμ.
Ειδικα αυτο το τοπικ είναι όλα τα λεφτά!!!

Σαν καινουργιος να ρίξω μια παραγγελιά;
Αν μπορεί κάποιος να βάλει "το Ερηνάκι" (ή αλλιως "φερτε πρέζα να πρεζάρω"), θα του ήμουν ευγνώμων

Επισης θα ηθελα αν μπορει καποιος στο τραγουδι του θαναση παπακωνσταντινου "Πεχλιβανης" να μου πει πως αποδιδεται το μερος του τραγουδιου που λεει " Βρε αμαν αμααααν" . Στην ταμπλατουρα που εχει ανεβει στις πρωτες σελιδες εμφανιζεται ως -0-8-7-8-5-7-3-0- αλλα ετσι οσο και να το προσπαθω δεν μου βγαινει...
Φίλε Σάκη, εγώ το παίζω έτσι:
-8-7-8-5-3-0-2 και μου βγαίνει καλά. Άμα θες βέβαια μπορείς να παίξεις και το 7 ταστο αναμεσα στο 5ο και το 3ο για εμπλουτισμό, αλλά ακουγεται καλά και χωρίς αυτό.


Τίτλος: Τσιγάρο ατέλειωτο (Σωκράτης Μάλαμας)
Αποστολή από: ΜΑΚΗΣ στις Σεπτέμβριος 06, 2010, 08:34:46 μμ
Χαίρεται και καλό χειμώνα σε όλους.
Μαλαμας Σωκράτης και
«τσιγάρο ατελείωτο»
εισαγωγή
1)-----------2-2-0-2-4-4-0-0-------4-5-5-2-2----4-5-7-7-4-4-0-0
2) 0-0-3-3--------------------2-2-------------3-3-------------------

1)---------------2-2-0-2-4-4-0-0-------4-5-5-4-5-7-7-5-7-4-5-2------
2)3-2-0-0-3-3--------------------2-2--------------------------------

Λόγια
Θα περπατήσω……..   γύρισμα
2) 3-3-2-3-2-3-2-3-2-3-0-2—2—                  1) 9-10-7-9-5-7-4-7-5--

  Μήπως………                                                γύρισμα
   1) 5-5-5-5-5-5-4-5-7-9-10-9--               1)---- 0-2-4-4-2-0-2
                                                             2)2-3---------------                             
Και σε υπόγεια
1)2-2-2-2-4-2-0-2-0
2)-------------------3-2-0--0--

                               
               Μ ένα ποτήρι
1)-------0—0-0-0-0-0-0-0-----
2)0-2-3----------------3—3-2--

γύρισμα*
1)4-4-4-2-4-5-7-9-9-9-10-9-7-5-4-5----

ρεφρέν
τσιγάρο ατελείωτο
1)9-9-9-9-9-9-7-9-7-5-4-2--2—0-
2)-------------------------------3---
Μοιάζει γυναίκα                              γύρισμα
1)7-7-7-7-7--7-7-7-5-4-2-0-0   1)0-2-4-5
Ρίχνει το γέλιο
1)5-5-5-5-5-5-5-5-5-4-2-0-----0--
2)-------------------------3-3—-3-2
Κερναει τα επόμενα      
1)0-0-0-0-0-0-0-0—0--------      
2)----------------3—3-2--2--
γύρισμα*
1)4-4-4-2-4-5-7-9-9-9-10-9-7-5-4-5
Το ρεφρέν ξανά και κλίνει…
Κερναει τα επόμενα      
1)0-0-0-0-0-0-0-0-2-4-5-2-2      



www.youtube.com/watch?v=MuiLeQIZnFk


Τίτλος: Τα παιδιά μες στην πλατεία (Σωκράτης Μάλαμας)
Αποστολή από: ΘΟΔΩΡΗΣ στις Σεπτέμβριος 07, 2010, 04:21:10 πμ
Για να συνεχίσουμε έτσι...

Σωκράτης Μάλαμας - ''τα παιδιά μες στην πλατεία''


''Πιάνω να ζωγραφίσω τα παιδιά μες στην πλατεία,σαν να 'ταν όπως πρώτα κι όπως θα 'θελα''

-------------------------------------------4-4-4-4-4-2-2-0-2-4-0-----------4-4-4-4-4-2-4-7-5-4------
---2-2-2-3-2-2-2-2-3-2-3-2-2-0-2-2---2-2--------------------- ---3-2--2-2---------------------------

''μα όλα αλλάζουν και το χέρι μου αρπάζουν,αλλάξανε τα χρώματα,τα λόγια και τα στόματα,τα μάτια μέιναν ίδια στα φώτα τα παιχνίδια''

---0-2-2-2-2-0-2-4-5-4-2-0-0-------4-4-4-4-4-4-2-2-2-0-2---------------4-4-4-4-4-4-2-2-2-0-2--------------------------------------------2-2---------------------------3-2-2--2-2---------------------------3-2-2---

Μουσικό Θέμα

-2-4-5-2-9-9-7-5-4-4-2-4-0---0-2-4--5-4-5-7-10-9-12-10-9-10-14---9-9-9-10-9-9-9-9--------------

''Άμα δεν είναι όπως τα θες,δεν έχεις λόγους κι αφορμές,δεν κάνεις βήμα''

-2-2-2-2-0-2-4-0-0-2-4-5-4-2-----------------4-4-------------------------------------------------
--------------------------------3-2-2-2-2-2--------------------------------------------------------


'Όσα κοστίζουν μια δραχμή,γι άλοους κοστίζουν μια ζωή,δεν είναι κρίμα,δεν είναι κρίμα''

-2-2-2-2-2-4-0-2-0-2-4-5-4-2-----------------4-4-----2-2-0-2-----------------------------------------
--------------------------------3-2-2-2-2-2----------------------2-2-2--------------------------------


2ο Μουσικό Θέμα

--9-7-5-4--4-5-4--4-5-4--4-5-4-5-4-5-7-7-7-7-7-7-7-9-5-4-----2-0-2------2-0-2----------------------
--------------------------------------------------------------------------3----------3-0----2-2-2-3-2-2



www.youtube.com/watch?v=SnDwx8qtqtQ


Τίτλος: Η συνέλευση των ποντικών (Χάρης & Πάνος Κατσιμίχας)
Αποστολή από: hristos στις Σεπτέμβριος 07, 2010, 08:49:56 πμ
Η ΣΥΝΕΛΕΥΣΗ ΤΩΝ ΠΟΝΤΙΚΙΩΝ

ΕΙΣΑΓΩΓΗ
1Χ  14-14-14-9-----7-14-13---13-16-14-9-10-7-9-----9-8-9-8------------------------
2Χ  -----------10-7---------14-------------------7-10--------10-9-7-10-12-10-9-10-9

1Χ  -----9-14-13--13-16-14-9-10-7-9-----9-8-9-8-----------------------------------
2Χ  7-10--------14-------------------7-10---------10-9-7-10-12-10-9-10-9-7-2--2-7-
3Χ  ----------------------------------------------------------------------------5----

ΛΟΓΙΑ
1Χ 14-14-14-12-10-9-7--7-9-10-12-10-9--9-9-9-8-8--8-8-8--8-10-9
2Χ  -------------------10-----------------------------------9-------

1Χ  14-14-14-14-12-10-9-7--7-9-10-12-10-9--9-9-9-8-8----------------------------
2Χ  -----------------------10----------------------------10-9-12-10-9-10-7-2--2-7-
3Χ----------------------------------------------------------------------------5-----

1Χ  --------------------------------9-------------------------------------------------9
2Χ  10-10-10-10-9-10-9-10-9-10-11--11-10-9-7--10-10-10-9-9-9-9-9--10-9-7-7-10-7-
3Χ  -----------------------------------------------------------------14------

1Χ  -------------------------------9------------------------------------------------
2Χ  --10-10-10-9-10-9-10-9-10-11--11-10-9-7--10-10-10-9-9-9-9-9--10-9-7-2--2-7-
3Χ  14-------------------------------------------------------------14---------5-----

Αν υπάρχουν λάθη και υπάρχει κάποιος που το ξέρει καλύτερα ας το διορθώσει.
Καλές πενιές παιδιά!



www.youtube.com/watch?v=3gkqNvx-RwQ


Τίτλος: Απ: Παρτιτούρες για Μπαγλαμά Τζουρά 3χορδο μπουζούκι...
Αποστολή από: legna στις Σεπτέμβριος 09, 2010, 12:38:49 πμ
ρε παιδια, μηπως του βρισκεται κανενος ο ακροβατης (το ειχα ζητησει και παλιοτερα) και το αχυρενιο σπιτι απο χαηνιδες? πολυ θα βοηθουσατε αν τα ξερατε!
και κατι ακομα, οσο παει και καλυτερα βλεπω, εχουν ανεβει πολλα και ωραια τραγουδια. καλη συνεχεια  8)


Τίτλος: Απ: Παρτιτούρες για Μπαγλαμά Τζουρά 3χορδο μπουζούκι...
Αποστολή από: ΘΟΔΩΡΗΣ στις Σεπτέμβριος 09, 2010, 06:16:06 μμ
legna από χαίνηδες έχω τίγρη,είχα μια αγάπη μια φορά,καπηλειό και ακροβάτη.Το αχυρένιο σπίτι πολύ ωραίο κομμάτι δεν το χω δοκιμάσει με τα παιδιά που παίζω...θα ανεβάσω ακροβάτη όταν βρω χρόνο σε πρώτη ευκαιρεία..

επίσης από μάλαμα και θανάση έχω αρκετά αν θέλετε που παίζουμε.


Τίτλος: Κλείσε τα μάτια σου [κουπλέ-ρεφρέν] (Νίκος Πορτοκάλογλου)
Αποστολή από: ΜΑΚΗΣ στις Σεπτέμβριος 09, 2010, 08:36:19 μμ
ΚΛΕΙΣΕ ΤΑ ΜΑΤΙΑ ΣΟΥ
ΠΟΡΤΟΚΑΛΟΓΛΟΥ Ν.
σαν μοναχοοοοός          ράσοοοοο      
1)-0-2-3--------7-5-3-2----------5
2)0-------------------------------5
3)--------------------------------5

σαν προσφυγακι                 πασο
1)5-5-7-8---------12-10-8-7----------
αρμονξκη 78910

ερσι κι εγω                                        κι αργουσα  
1)10-10-10-10--10/10/10/10/5-7-8-7--5--3--
                                         χωρις ελπιδα αγαπουσα
1)3333-7-5-3-2--3-2------0-2-0-3-2-0-0-------------
2)---------------5-4--0-4-----------------------------
γυρισμα 781012

ρεφρεν
κλεισε τα ματια σου
1)12-10-8--10-8--7----
2)13-12-10-12-10-8---          διπλες

να φυγω να χαθω
!)8---7-5-3-5-7----
2)10-8-7-5-7-8 ---                   διπλες
γυρισμα 781012

γι΄αυτα τα ματι σου
1)12-10-8--10-8--7----
2)13-12-10-12-10-8---          διπλες

θα ξαναρθω
1)8--7-5-3---
2)10-8-7-5---                     διπλες

όσο για την εισαγωγή,
αν μπορεί κάποιος ας
μας βοηθήσει!!!



www.youtube.com/watch?v=Bahs9TKJjNk


Τίτλος: Απ: Παρτιτούρες για Μπαγλαμά Τζουρά 3χορδο μπουζούκι...
Αποστολή από: nikkortis στις Σεπτέμβριος 10, 2010, 03:11:34 μμ
legna από χαίνηδες έχω τίγρη,είχα μια αγάπη μια φορά,καπηλειό και ακροβάτη.Το αχυρένιο σπίτι πολύ ωραίο κομμάτι δεν το χω δοκιμάσει με τα παιδιά που παίζω...θα ανεβάσω ακροβάτη όταν βρω χρόνο σε πρώτη ευκαιρεία..

επίσης από μάλαμα και θανάση έχω αρκετά αν θέλετε που παίζουμε.

Φιλε Θοδωρε εαν μπορεις βαλε απο Θαναση οσα πιο πολλα μπορεις.... οπως και Μαλαμα... εαν σου ειναι ευκολο... περιμενω πως και πως..... σ ευχαριστω πολυ!  :)


Τίτλος: Απ: Παρτιτούρες για Μπαγλαμά Τζουρά 3χορδο μπουζούκι...
Αποστολή από: ΘΟΔΩΡΗΣ στις Σεπτέμβριος 10, 2010, 06:29:07 μμ
Φίλε nikkortis έχω βάλει από Θανάση αν θυμάμαι καλά το ''παλιά πληγή'' και το ''επιτύμβιο'' και έχουν ανέβει και ''αποπσπερίτης'',''πεχλιβάνης'',''όταν χαράζει'' και τα 3 της κανά.Θα ανεβάσω σε πρώτη ευκαιρεία σταδιακά ''παξιμάδια'',''ανδρομέδα'',''τρία ρουμπαγιάτ'',''κάτω απ' το μαξιλάρι'' καθώς και τα θεματάκια από τράτα και κοιλάδα.Από Μάλαμα έχω ανεβάσει ''πάγια'',''τα παιδιά μες στη πλατεία'' και ''πριγκηπέσα''.Θα ανεβάσω και ''είναι σκοτάδι''.

Από χαίνηδες τον ακροβάτη επίσης που ζητήθηκε.

Απλά λίγη υπομονή θα τα ανεβάσω σταδιακά γιατί είναι πολλά.


Τίτλος: Απ: Παρτιτούρες για Μπαγλαμά Τζουρά 3χορδο μπουζούκι...
Αποστολή από: nikkortis στις Σεπτέμβριος 10, 2010, 11:39:17 μμ
Φίλε nikkortis έχω βάλει από Θανάση αν θυμάμαι καλά το ''παλιά πληγή'' και το ''επιτύμβιο'' και έχουν ανέβει και ''αποπσπερίτης'',''πεχλιβάνης'',''όταν χαράζει'' και τα 3 της κανά.Θα ανεβάσω σε πρώτη ευκαιρεία σταδιακά ''παξιμάδια'',''ανδρομέδα'',''τρία ρουμπαγιάτ'',''κάτω απ' το μαξιλάρι'' καθώς και τα θεματάκια από τράτα και κοιλάδα.Από Μάλαμα έχω ανεβάσει ''πάγια'',''τα παιδιά μες στη πλατεία'' και ''πριγκηπέσα''.Θα ανεβάσω και ''είναι σκοτάδι''.

Από χαίνηδες τον ακροβάτη επίσης που ζητήθηκε.

Απλά λίγη υπομονή θα τα ανεβάσω σταδιακά γιατί είναι πολλά.
ναι ναι το ξερω φιλε Θοδωρη! το κοιταω το φορουμ καθε μερα μηπως και μπηκε κατι  ;) κανεις-κανετε-κανουμε καλη δουλεια! περιμενουμε και τα υπολοιπα με την ησυχια σου! εδω ειμαστε εμεις!  ;D


Τίτλος: Απ: Παρτιτούρες για Μπαγλαμά Τζουρά 3χορδο μπουζούκι...
Αποστολή από: Steve da Greek στις Σεπτέμβριος 12, 2010, 03:21:08 μμ

Edw exei tous dromous se poli kali tablatoura.Xazepsa ligo :)


http://www.btinternet.com/~christopher.blackmore/rebetiko/roads.html


Τίτλος: Απ: Παρτιτούρες για Μπαγλαμά Τζουρά 3χορδο μπουζούκι...
Αποστολή από: Αγγελος στις Σεπτέμβριος 13, 2010, 09:27:27 μμ
Φιλε Θοδωρη, περιμενω πως και πως την εισαγωγή από τα "παξιμάδια".

Την πολεμώ πολύ καιρό αλλά είναι πολύ γρήγορη για το απειρο αυτι μου. >:(



Τίτλος: Τα παξιμάδια (Θανάσης Παπακωνσταντίνου - Σωκράτης Μάλαμας)
Αποστολή από: ΘΟΔΩΡΗΣ στις Σεπτέμβριος 14, 2010, 05:34:00 μμ
Δεν είναι τίποτα Άγγελε,πάμε..

''παξιμάδια'' εισαγωγή..

---0-3-5-7--7--7--7--7--7--7--8-7-5-7-5-2-3-3-3---5-3-2-0-0-0-0---7-2-2-2-3-2-0----3-2-3-5-3-2-0
---------8--8--8--8--8--8--8---------------------------------------------3-3--------3--------------0
--------10-10-10-10-10-10-10--------------------------------------------5-5-----------------------0

Το τραγούδι αρχίζει από το 7 στη κάτω ρε,αν δεν το βγάλεις πες μου να το ανεβάσω όλο..

πάνω γραμμή η κάτω ρε,δεύτερη λα,κάτω γραμμή η πάνω ρε η ''χοντρή''..
Τα 0-0-0 είναι η απλή συγχορδία ρε,το 7-8-10 μαζί η φα και το 2-3-5 μαζί η συγχορδία ντο.

Αν θες να ακουστεί ψηλά όπως στον δίσκο,ξεκίνα την εισαγωγή από την άλλη ρε δηλαδή -12-15-17-19-19-19-19 κτλ κτλ αντίστοιχα από εκεί μετά..


www.youtube.com/watch?v=a88XQYOOxnI


Τίτλος: Πώς θα περάσει η βραδιά (Γ. Παπαϊωάννου/Α. Αγγελόπουλος - Σωτηρία Μπέλλου)
Αποστολή από: kyuss στις Σεπτέμβριος 14, 2010, 08:04:47 μμ
PWS THA PERASEI H VRADYA

EISAGWGH

0-0-2-3-5-7-3-5-5-3-5-7-3-5-3-1-0----0-12-12-12-12-12-12-12-10-12-14-12-10-8-7-5-5-3-5-7-3-5-3-1-0----0
------------------------------------3----------------------------------------------------------------------3--

STIXOI
                                                                                                                   GEMISMATAKI
10-12-12-12-10-12-10-7-9-10-12-9-10-10-10-9-10-97-9-10-12-7----[7-9-10-9-10-9-10-9-7-5-7-9-12-7-9-10-12-]


10-12-12-12-10-12-10-7-9-10-12-10-8-7-5-3-2-3-5-7--


10-12-12-12-10-12-10-7-9-10-12-10-8-7-5-3-7-3-0-----



www.youtube.com/watch?v=AEKkvhQLQUs


Τίτλος: Απ: Παρτιτούρες για Μπαγλαμά Τζουρά 3χορδο μπουζούκι...
Αποστολή από: kyuss στις Σεπτέμβριος 14, 2010, 08:09:57 μμ
EXEI K ENA TELEUTAIO KOMMATI POU THA TO VALW TWRA


Τίτλος: Απ: Παρτιτούρες για Μπαγλαμά Τζουρά 3χορδο μπουζούκι...
Αποστολή από: kyuss στις Σεπτέμβριος 14, 2010, 08:14:09 μμ
0-2-3-5-7-5-7-9-10-12-10-8-7-5-3-7-3-0 [2 FORES]



Τίτλος: Απ: Παρτιτούρες για Μπαγλαμά Τζουρά 3χορδο μπουζούκι...
Αποστολή από: nikkortis στις Σεπτέμβριος 14, 2010, 11:06:23 μμ
Να 'χεις μολύβι στην καρδιά
Στα μάτια νυχτερίδες
Κι όσους ρωτούν για συγγενείς
Να λες πως δεν τους είδες


παμεεεεεεεεεεεεεεεεεεεεεε  δωσε ρε Θοδωρε!



Τίτλος: Μπουζούκι μου διπλόχορδο [2] (Μάρκος Βαμβακάρης & Στράτος Παγιουμτζής)
Αποστολή από: Steve da Greek στις Σεπτέμβριος 15, 2010, 03:22:29 πμ
Den nomizw na to eida se kapoio proigoumeno post, alla paei kapws etsi

Vamvakaris - Mpouzouki mou diploxordo

Eisagwgi
                                                                                    (gemisma)
-----4---------------------------------7-7-7-7-7-7--             -------------4-5-
-5-5 --6-6---5-3- 6-5-- 0-5--0-5 --0-5-------------(x2)         -----5-5-5-6-----
------------------------------------------------------              ----------------

Stixoi:
Mpouzouki mou diploxordo, mpouzouki mou kaimeno
5-5-4-5- -7-8-7-8-10---8-7-5-4-7-7
-----------------------------------------
-----------------------------------------

Monaxa esi parigoreis ka8e farmakwmeno
5-5-4-5--7-8-7-10----8-7-5-4-------
----------------------------------6-5-5
-----------------------------------------

Monaxa esi parigoreis ka8e farmakwmeno
---------------------5-5-4---------7-7-
5--6--5--3-2--3-5-6---------6-5--------
----------------------------------------


Mpouzouki mou diploxordo, mpouzouki mou kaimeno
---------------------5-5-4---------------
5--6--5--3-2--3-5-6---------6-5--5-5-5
----------------------------------------



www.youtube.com/watch?v=FCLMvEJYJCI


Τίτλος: Απ: Παρτιτούρες για Μπαγλαμά Τζουρά 3χορδο μπουζούκι...
Αποστολή από: kyuss στις Σεπτέμβριος 15, 2010, 11:59:00 πμ
re paidia exei mpei to vrexei sth ftwxogeitonia?


Τίτλος: Απ: Παρτιτούρες για Μπαγλαμά Τζουρά 3χορδο μπουζούκι...
Αποστολή από: Steve da Greek στις Σεπτέμβριος 15, 2010, 02:31:06 μμ
Einai stin 38 selida kai to eixe anevasei o 3xordos.bravo re 3xorde alani


Τίτλος: Απ: Παρτιτούρες για Μπαγλαμά Τζουρά 3χορδο μπουζούκι...
Αποστολή από: Αγγελος στις Σεπτέμβριος 15, 2010, 07:19:11 μμ
Δεν είναι τίποτα Άγγελε,πάμε..

''παξιμάδια'' εισαγωγή..

---0-3-5-7--7--7--7--7--7--7--8-7-5-7-5-2-3-3-3---5-3-2-0-0-0-0---7-2-2-2-3-2-0----3-2-3-5-3-2-0
---------8--8--8--8--8--8--8---------------------------------------------3-3--------3--------------0
--------10-10-10-10-10-10-10--------------------------------------------5-5-----------------------0

Το τραγούδι αρχίζει από το 7 στη κάτω ρε,αν δεν το βγάλεις πες μου να το ανεβάσω όλο..

πάνω γραμμή η κάτω ρε,δεύτερη λα,κάτω γραμμή η πάνω ρε η ''χοντρή''..
Τα 0-0-0 είναι η απλή συγχορδία ρε,το 7-8-10 μαζί η φα και το 2-3-5 μαζί η συγχορδία ντο.

Αν θες να ακουστεί ψηλά όπως στον δίσκο,ξεκίνα την εισαγωγή από την άλλη ρε δηλαδή -12-15-17-19-19-19-19 κτλ κτλ αντίστοιχα από εκεί μετά..
Μπράβο ρε Θοδωρά!
Σ'ευχαριστώ πάρα πολύ! :D :D

Βάλε ότι έχεις από Θαναση και Σωκράτη! 8)


Τίτλος: Απ: Παρτιτούρες για Μπαγλαμά Τζουρά 3χορδο μπουζούκι...
Αποστολή από: nikkortis στις Σεπτέμβριος 16, 2010, 12:24:25 πμ
εχει μπει στις πρωτες σελιδες αλλα δεν πειραζει! ανεβαζε φιλε!!!!! και μια διαφορετικη εκδοχη ειναι καλη παντα! ;D Μπραβο σου!


Τίτλος: Απ: Παρτιτούρες για Μπαγλαμά Τζουρά 3χορδο μπουζούκι...
Αποστολή από: hristos στις Σεπτέμβριος 16, 2010, 07:50:37 πμ
Εχει κανείς το  << ΚΑΡΔΙΑ ΠΑΡΑΠΟΝΙΑΡΑ >> του ΧΑΤΖΗΧΡΗΣΤΟΥ?


Τίτλος: Απ: Παρτιτούρες για Μπαγλαμά Τζουρά 3χορδο μπουζούκι...
Αποστολή από: kyuss στις Σεπτέμβριος 17, 2010, 05:52:41 μμ
re magkes thn mpournovalia kapoios!!!k ton zoriko tou xatzichristou


Τίτλος: Απ: Παρτιτούρες για Μπαγλαμά Τζουρά 3χορδο μπουζούκι...
Αποστολή από: Steve da Greek στις Σεπτέμβριος 18, 2010, 11:24:31 μμ
den tin kserw tin mpournovalia alla isws auto voi8isei se opoion to parei apofasi na tin vgalei
http://www.youtube.com/watch?v=1QNCJThyqXw


Τίτλος: Τα τσιγάρα (Ορφέας Περίδης)
Αποστολή από: Steve da Greek στις Σεπτέμβριος 19, 2010, 01:23:52 πμ
Molis evgala ta Tsigara tou Peridi kai den eimai sigouros gia to kata poso einai swsto kai 8elw tin gnwmi sas
gia to kata poso einai swsto i la8os
Τα τσιγάρα αναβοσβήνω
-----------------------------------------------------------------
8-10-10-10-12-10-8-6-10-10-----------------------------------
------------------------------------------------------------------

κάνω το πικρό γλυκό
------------------------------------------------------------------
8-10-12-14-14-15-10-12-12--------------------------------------
------------------------------------------------------------------

κι ο καπνός που πάει πάνω
------------------------------------------------------------------
8-10-10-10-3-5-6-8-10-10-----------------------------
------------------------------------------------------------------

φτιάχνει ένα μηδενικό
------------------------------------------------------------------
10-12-8-10-6-8-10--------------------------------------------
------------------------------------------------------------------


(antapokrisi)
------------------------------------------------------------------
12-10-8-10-----------------------------------------------------
------------------------------------------------------------------

κι ο καπνός που πάει πάνω
------------------------------------------------------------------
8-10-10-10-3-5-6-8-10-10-----------------------------
------------------------------------------------------------------

φτιάχνει ένα μηδενικό
------------------------------------------------------------------
5-6-8-10-8-6-5--------------------------------------------
------------------------------------------------------------------



www.youtube.com/watch?v=8Vs0IaetBI4


Τίτλος: Απ: Παρτιτούρες για Μπαγλαμά Τζουρά 3χορδο μπουζούκι...
Αποστολή από: ΘΟΔΩΡΗΣ στις Σεπτέμβριος 20, 2010, 02:42:39 πμ
Έχει λαθάκια steve...θα ανεβάσω και γω δική μου εκδοχη..


Τίτλος: Ο ακροβάτης (Χαΐνηδες)
Αποστολή από: ΘΟΔΩΡΗΣ στις Σεπτέμβριος 20, 2010, 11:48:46 μμ
Κομμάτι όμορφο που έχει ζητηθεί..

''Ο Ακροβάτης'' - Χαίνηδες

Εισαγωγή

-10-10-9-7-9-10-14-12-10-9-9-10-9-7-5-5-4-2--------------
-------------------------------------------------------------
-------------------------------------------------------------


-10-10-9-10-14-12-10-9-7--7-7-5-4-5-7---9-10-9---5-4---2-2-
---------------------------------------------------------------
---------------------------------------------------------------

Λόγια

-7-9-9-9-9-7-7-5-9-7--5-5-5-4-4-0-2----------------------
-----------------------------------------------------------      (Χ2)
-----------------------------------------------------------


-0-2-4-5--7-5-4-4-2----0-2-4-5--7--5-4-4---------------
---------------------------------------------------------
---------------------------------------------------------


-5-7-8-8--7-5-4-2-2-----4-5-7-7-5-4-4----2-2----------
---------------------------------------------------------
---------------------------------------------------------



www.youtube.com/watch?v=_elZ1C569MQ


Τίτλος: Τα παξιμάδια (Θανάσης Παπακωνσταντίνου - Σωκράτης Μάλαμας)
Αποστολή από: ΘΟΔΩΡΗΣ στις Σεπτέμβριος 21, 2010, 12:15:59 πμ
Ολόκληρα τα ''παξιμάδια'' του θανάση..καλό βιντεάκι εδώ..

www.youtube.com/watch?v=-mRt6_e6oRg


Εισαγωγή

---0-3-5-7--7--7--7--7--7--7--8-7-5-7-5-2-3-3-3---5-3-2-0-0-0-0---7-2-2-2-3-2-0----3-2-3-5-3-2-0
---------8--8--8--8--8--8--8---------------------------------------------3-3--------3--------------0
--------10-10-10-10-10-10-10--------------------------------------------5-5-----------------------0


Λόγια

''Βαρκάρη του αχέροντα,σ' έχουν ξεδιαλεγμέεενο''

--7-7-7-5--2h3-------0-2-3-2-0----------0-2-3-5-7-5-8-8-7-5--------------------
-----------------3-3-------------------3------------------------------------------

''να χεις μολύβι στην καρδιά,στα μάτια νυχτερίδες''

--10-9-10-12-12--7-8-10-8-7-5--7-5-7-5-------7-5-3-2h3--------0-2-3-2-0-------
--------------------------------------------------------------3-3-----------------

πέρασμα

-8-7-5-3-5-2-3-0----------------------------------------

''κι όσους ρωτούν για συγγενείς,να λες πως δεν τους είδες''

--10-9-10-12-12--7-8-10-8-7-5--7-5-7-5-------7-5-3-2h3--------0-2-3-2-0-------
--------------------------------------------------------------3-3-----------------


Τίτλος: Απ: Παρτιτούρες για Μπαγλαμά Τζουρά 3χορδο μπουζούκι...
Αποστολή από: Steve da Greek στις Σεπτέμβριος 21, 2010, 02:30:20 πμ
Μπράβο Θοδωρή για τα τραγουδάκια.
δεν προλαβαίνω να τελειοποιήσω τα Τσιγάρα λόγω έλλειψης χρόνου :(
πάντως αν μπορείς να το διορθώσεις...θα σου ανάψω λαμπάδα :)


Τίτλος: Απ: Παρτιτούρες για Μπαγλαμά Τζουρά 3χορδο μπουζούκι...
Αποστολή από: kyuss στις Σεπτέμβριος 21, 2010, 09:46:27 πμ
Kalhmera paida!!!!K tn kaiksh opoios ton kserei na ton anevasei einai kommatara k dn yparxei...Vasika yparxei se kapoia selida alla dn einai katholou kala grammeno


Τίτλος: Απ: Παρτιτούρες για Μπαγλαμά Τζουρά 3χορδο μπουζούκι...
Αποστολή από: thodoris στις Σεπτέμβριος 21, 2010, 04:03:03 μμ
  Την Μπουρνοβαλια σε κανα δυο μερες θα την ανεβασω , ο Καιξης καλος μου φανηκε..


Τίτλος: Απ: Παρτιτούρες για Μπαγλαμά Τζουρά 3χορδο μπουζούκι...
Αποστολή από: ΘΟΔΩΡΗΣ στις Σεπτέμβριος 21, 2010, 06:11:23 μμ
Ναι,αν μπορεί κάποιος να ανεβάσει τον ''καιξή'' καλά...


Τίτλος: Καϊξής [2] (Α. Χατζηχρήστος - Α. Χατζηχρήστος & Μ. Βαμβακάρης)
Αποστολή από: hristos στις Σεπτέμβριος 21, 2010, 10:58:17 μμ
ΚΑΪΞΗΣ

1Χ 3-3-3-3-3-3-3-3-3-------------------12-14-12-14-11-12-11-14-12-14-12-15-14-15-14-17
2Χ 5-5-5-5-5-5-5-5-5-8--7--10--3--5--5----------------------------------------------------
3Χ 7-7-7-7-7-7-7-7-7-----------------------------------------------------------------------

1Χ 15--14--17--10--12--12--12---------7-8-9-10-12----10----8---7--17--10--12--10--12
2Χ ----------------------------5-7-8-10--------------12----10---8-----------------------

1Χ ------15-19-15-17-15-14-15---15--14--10--12--12-14-12-1411-12-11-14-12-14-12-15-14-15-14-17
2Χ 17-17-----------------------17--------------------------------------------------------------------

1Χ 15--15-17-15-14-15-17-15-14-15-14--14--10-12--12--12-----------7-8-9-10-12--12--10--10--
2Χ ----------------------------------------------------------5-7-8-10-----------13------12------
3Χ ------------------------------------------------------------------------------15------15------

1Χ 8---8--7--7----------------12-10-8-7-----------------7-------------7-8-10-12--12--10--10--
2Χ 10-----8-----10--8--7--8--10--------10-8-7-5-7-8-10--10-8-7-8-10---------13------12------
3Χ 12----10--------------------------------------------------------------------15------15------

1Χ 8---8--7--7--15--14--14--10--12--12--12--12--12
2Χ 10-----8-----12--10--10---7---8---8---8-------12
3Χ 12----10---------------------------------------15



www.youtube.com/watch?v=e3E6yLOZWd0


Τίτλος: Μπουρνοβαλιά (Σταύρος Ξαρχάκος/Νίκος Γκάτσος - Σωτηρία Λεονάρδου)
Αποστολή από: thodoris στις Σεπτέμβριος 22, 2010, 12:11:07 μμ
             Μπουρνοβαλια

 Στιχοι : Νικος Γκατσος
 Μουσικη : Σταυρος Ξαρχακος

 Εισαγωγη :

 1η :-12---16-13--12--10--13--12----10---13-12--10-------------
 2η :--------------------------------------------------13--12--10-

 1η :----------------9--10--9--10--9--12-------------------12----
 2η :----9--10--12--------------------------15-13--12--12------12

 1η :-12---16-13--12--10--13--12----10---13-12--10-------------
 2η :--------------------------------------------------13--12--10-

 1η :-4--5--6--5--6--5--4----------------------0--0--------0-0--0------------4--5--
 2η :-----------------------6--5----5-5--5--3----------0----------------5--6--------

 Λογια :

 1η :-4--5--5----5----5----5----7-5--4-------------------4-------4----5----7-5--4--5----7----
 2η :------------------------------------6----5--------6-----6---------------------------------

 1η :-7--8--8----8--7--8----10-8--7--------------------4-------4----5----7-5--4--5----7-----
 2η :---------------------------------10----9--------6-----6----------------------------------

 1η :-7--8--8----8--7--8-7-8-10-8--7------7--------------4-------4----5----7-5--4------------
 2η :-----------------------------------10-----9--------6----6-----------------------6----5----

 Ανταποκριση :

 1η :-12-16-13--12--13----16----17-19-17-16----------------17-19-21-22-24----
 2η :------------------------------------------18--17--17-----------------------

 Λογια :

 1η :------------------------------------------------------------------------------------13-12--10--8--7--5
 2η :----------------------------20-19--17--15--14--12------14--15--15----15----15-----------------------
 3η :-22--24--24----24----24-------------------------------------------------------------------------------

 1η :----7--8--8----8--7--7--8--7--5--5--7--5--4--4--5--4-----4----5----7--8-10-8--7--7---
 2η :--------------------------------------------------------6-------------------------------

 Ανταποκριση :

 1η :17-19-21-22-24----

 Λογια :

 1η :------------------------------------------------------------------------------------13-12--10--8--7--5
 2η :----------------------------20-19--17--15--14--12------14--15--15----15----15-----------------------
 3η :-22--24--24----24----24-------------------------------------------------------------------------------

 1η :----7--8--8--10--8--7--7--8--7--5--5--7--5--4--4----4--4--5--6--5-6-5--4--4--1--1--0--0----------

 Και για φιναλε :

 1η :-12----16-13--12--10--13--12----19--------12
 2η :--------------------------------------------12
 3η :--------------------------------------------16

 Μονο για το ακορντο στο τελος δεν ειμαι σιγουρος , παιξτε το και πειτε μου



www.youtube.com/watch?v=UKEHf9HwVv4


Τίτλος: Απ: Παρτιτούρες για Μπαγλαμά Τζουρά 3χορδο μπουζούκι...
Αποστολή από: paleokostas στις Σεπτέμβριος 24, 2010, 06:14:57 μμ
παιδια ειναι ευκολο να βγαλετε το <ΚΑΦΤΟΝΕ ΣΤΑΥΡΟ ΚΑΦΤΟΝΕ> - Μ. Βαμβακάρη?


Τίτλος: Απ: Παρτιτούρες για Μπαγλαμά Τζουρά 3χορδο μπουζούκι...
Αποστολή από: Steve da Greek στις Σεπτέμβριος 25, 2010, 07:10:12 πμ
Magges ta Kavourakia tou Tsitsani to exoume?exw ksekinisei kai to vgazw.8a to postarw sintoma an einai


Τίτλος: Απ: Παρτιτούρες για Μπαγλαμά Τζουρά 3χορδο μπουζούκι...
Αποστολή από: ΘΟΔΩΡΗΣ στις Σεπτέμβριος 26, 2010, 07:31:36 πμ
Παιδιά έχουν ανέβει μήπως ''τα ζηλιάρικα σου μάτια'' του Βαμβακάρη..????

Αλλιώς,έχει δοκιμάσει κανείς να το βγάλει?


Τίτλος: Απ: Παρτιτούρες για Μπαγλαμά Τζουρά 3χορδο μπουζούκι...
Αποστολή από: disam pt στις Σεπτέμβριος 26, 2010, 12:35:50 μμ
καλησπερα παιδια.
Εαν θα μπορουσε καποιος να βαλει και το "Καραβοτσακισματα" του Βαμβακαρη


Τίτλος: Τα καραβοτσακίσματα (Μάρκος Βαμβακάρης, "Φράγκος")
Αποστολή από: thodoris στις Σεπτέμβριος 26, 2010, 06:48:34 μμ
     Καραβοτσακισματα

 Μουσικη/Στιχοι : Μαρκος Βαμβακαρης

 Εισαγωγη : Χ2

 1η :-10---10---5---5---4--5--7--5-----------4--5--7--5----------4----5---
 2η :---------------------------------8---7----------------8---7------------

 1η :-10---10---5---5---4--5--7--5-----------4--5--7--5---------------------------
 2η :---------------------------------8---7----------------8--7--6--7--3-------3---
 3η :-----------------------------------------------------------------------5---5---

 Λογια :

 1η :---------------5---4--5--7--5----------4--5--7--5-----------4----5----
 2η :-3------3--7-------------------8---7----------------8---7--------------
 3η :-----5------------------------------------------------------------------

 1η :---------------5---4--5--7--5------------4--5--7--5----------------------------
 2η :-3------3--7-------------------8---7--7--------------8--7--6--7--3--------3---
 3η :-----5-----------------------------------------------------------------5---5----

 1η :---------------5---4--5--7--5------------4--5--7--5---------4----5------
 2η :-3------3--7-------------------8---7--7-------------8---7----------------
 3η :-----5--------------------------------------------------------------------

 1η :---------------5---4--5--7--5------------4--5--7--5----------------------------
 2η :-3------3--7-------------------8---7--7--------------8--7--6--7--3--------3---
 3η :-----5-----------------------------------------------------------------5---5----

 Χωρις λογια :

 1η :---------------5---4--5--7--5----------4--5--7--5-----------4----5----
 2η :-3------3--7-------------------8---7----------------8---7--------------
 3η :-----5------------------------------------------------------------------

 1η :---------------5---4--5--7--5------------4--5--7--5----------------------------
 2η :-3------3--7-------------------8---7--7--------------8--7--6--7--3--------3---
 3η :-----5-----------------------------------------------------------------5---5----

 Λογια :

 1η :-7--8---8------------7--8---8-----10--9--10--6---6----------5--6---6----
 2η :--------------9--10------------------------------------7--8---------------

 1η :-10--9--10--6--9--5--6-----5--6--5--9--------------------
 2η :-------------------------8---------------11--10--9--10----

 1η :-7--8---8------------7--8---8-----10--9--10--6---6----------5--6---6----
 2η :--------------9--10------------------------------------7--8--------------

 1η :-10--9--10--12--9--10------9-----------------------10---
 2η :------------------------11-----11--10--8--7---10--------

 Οι κοκκινες παιζονται με τρεμολο



www.youtube.com/watch?v=3_bV7aV4Sl4


Τίτλος: Απ: Παρτιτούρες για Μπαγλαμά Τζουρά 3χορδο μπουζούκι...
Αποστολή από: legna στις Σεπτέμβριος 26, 2010, 07:01:53 μμ
μπραβο ρε παιδια, ωραια τραγουδια κι οσο παει και πληθαινουν! ευχαριστω και για τον ακροβατη θοδωρη :)


Τίτλος: Απ: Παρτιτούρες για Μπαγλαμά Τζουρά 3χορδο μπουζούκι...
Αποστολή από: kyuss στις Σεπτέμβριος 27, 2010, 03:00:25 μμ
re paidia h ypoga ektos apo th deyterh selida p dn einai k poly swsth yparxei k allou???


Τίτλος: Απ: Παρτιτούρες για Μπαγλαμά Τζουρά 3χορδο μπουζούκι...
Αποστολή από: Mpagianteras στις Σεπτέμβριος 29, 2010, 06:42:43 μμ
ρε παιδία μπορεί κάποιος το <<Ο Σταύρος>>(καντονε σταυρο καντονε) του μαρκου?αν γινεται για κιθαρα το tab...


Τίτλος: Απ: Παρτιτούρες για Μπαγλαμά Τζουρά 3χορδο μπουζούκι...
Αποστολή από: paleokostas στις Σεπτέμβριος 29, 2010, 09:30:27 μμ
nai an mporeitai to <ΚΑΦΤΟΝΕ ΣΤΑΥΡΟ ΚΑΦΤΟΝΕ> ;) :D ;D


Τίτλος: Απ: Παρτιτούρες για Μπαγλαμά Τζουρά 3χορδο μπουζούκι...
Αποστολή από: kthulu στις Σεπτέμβριος 29, 2010, 09:43:42 μμ
ρε παιδιά αν γίνετε και το "Έπρεπε να ερχόσουνα μάγκα με στο τεκέ μας" του Μάρκου αλλα δεν νομίζω ότι λέγεται έτσι το τραγούδι:)


Τίτλος: Απ: Παρτιτούρες για Μπαγλαμά Τζουρά 3χορδο μπουζούκι...
Αποστολή από: Mpagianteras στις Σεπτέμβριος 29, 2010, 10:00:18 μμ
το τραγουδι με τον στοιχο<<Έπρεπε να ερχόσουνα μάγκα με στο τεκέ μας>> εινα το "Καραντουζένι"....και υπαρχει γραμμενο στις προηγουμενεσ σελιδες... ::)


Τίτλος: Απ: Παρτιτούρες για Μπαγλαμά Τζουρά 3χορδο μπουζούκι...
Αποστολή από: Mpagianteras στις Σεπτέμβριος 29, 2010, 10:02:17 μμ
ρε παιδία μπορεί κάποιος το <<Ο Σταύρος>>(καντονε σταυρο καντονε) του μαρκου?αν γινεται για κιθαρα το tab... ???


Τίτλος: Απ: Παρτιτούρες για Μπαγλαμά Τζουρά 3χορδο μπουζούκι...
Αποστολή από: χαρης στις Σεπτέμβριος 30, 2010, 12:40:38 μμ
ρε παιδία μπορεί κάποιος το <<Ο Σταύρος>>(καντονε σταυρο καντονε) του μαρκου?αν γινεται για κιθαρα το tab... ???

Το τραγουδι που ζητας αν κατσεις μονος και προσπαθησεις θα το βγαλεις μια χαρα.
Αυτια εχεις,ακοη εχεις,ακολουθησε τον ρυθμο του και κατσε βγαλτο.
Ζειμπεκικο ειναι,χτυπα  εννια φορες το ποδι σου κατω και θα το βγαλεις.


Τίτλος: Απ: Παρτιτούρες για Μπαγλαμά Τζουρά 3χορδο μπουζούκι...
Αποστολή από: Mpagianteras στις Σεπτέμβριος 30, 2010, 04:44:08 μμ
το θεμα ειναι οτι ειμαι καινουργιος στο τριχορδο.....ας με βοηθησει καποιος :-[


Τίτλος: Απ: Παρτιτούρες για Μπαγλαμά Τζουρά 3χορδο μπουζούκι...
Αποστολή από: ΘΟΔΩΡΗΣ στις Οκτώβριος 02, 2010, 07:54:47 μμ
χαρη δεν ειναι ολοι στο ιδιο επιπεδο και δεν ειναι ωραιο να λες γενικα του αλλου ''ελα κατσε το χεις να το βγαλεις''..ξερω οτι δε το λες με κακη προθεση αλλα και γω καποτε δεν εβγαζα απλα ουτε μελωδιουλα...κ γω νεος ειμαι κ πολλα δε μπορω να τα βγαλω...φιλικα παντα...

βαλτε ρε παιδια τον ''σταυρο'' οποιος το χει βγαλει!


Τίτλος: Καν' τονε Σταύρο, καν' τονε (Μάκος Βαμβακάρης, "Φράγκος")
Αποστολή από: Steve da Greek στις Οκτώβριος 03, 2010, 12:37:48 πμ
Magges egw prospa8w na to vgalw optikoakoustikws. kai mou vgainei kapws etsi
to evgala molis twra kai se apli melwdia.
opoios mporei na to velteiwsei ena megalo mpravo apo emena.
i eisagwgi einai to idio akrivws

Κάν' τονε Σταύρο         * κάν' τονε
------------------------4-0--2-0--------------------------
0-2-4-5--0-5-0-5-0-5-----------5-------------------------
-------------------------------------------------------------

βάλ' του φωτιά           και *        κάφ' τονε
-----------------------0--------4-0--2-0---------------------
0-2-4-5--0-5-0-5-0-5--------------------5-------------------
-------------------------------------------------------------
βάλ' του φωτιά, και κάφ' τονε**
-6-7--9---------6-7-9-7------------------------------------
---------9-----------------9---------------------------------
---------------------------------------------------------

Κάν' τονε Σταύρο, κααάν' τονε
7-9-7----------------------------------------
--------9-9------10-9-7-9-5--------------    
------------------------------------------------------

*auto to "kai" me provlimatise poli an einai Re anoixti i La anoixti
kai an iparxei kai ston prwto stixo. Alla telika nomizw oti an to tragoudas 8a dwseis tin nota
pou tairiazei stin fwni sou.

**allos enas tropos
βάλ' του φωτιά και κάφ' τονε**
6-7--9---------7-9-7-9-----------------------
--------9-----------------9--------------------

Κάν' τονε Σταύρο, κάαααν' τονε
7-9-7-9----------------------------------------
----------9-9----10-9-7---9--5--------------



www.youtube.com/watch?v=clVAv2nf7i0


Τίτλος: Ένας πλάι στον άλλο (Μάνος Λοΐζος/Μάρω Λήμνου - Χάρης Παναγιώτου)
Αποστολή από: ΜΑΚΗΣ στις Οκτώβριος 03, 2010, 10:15:57 μμ
ΕΝΑΣ ΠΛΑΙ ΣΤΟΝ ΑΛΛΟ
Μ. Λοιζου
Μ. Λημνου

εισαγωγή
1)4-5-7-----4-5-7-8-------5-4-5-7-------4-1-4-1-0
2)-------------------------------------------------
3)-----4-5-7-------4-5-7-8-------5-4-5-7----------4-1-4-1-0

1)4-5-7-5-4-5-7--4-5-7-8-7-5-7-8--5-7-8-10-13-12-10-8-7-5--4-5
2)-------------------------------------------------------------5-5
3)---------------------------------------------------------------5

1)8-8-5-8-8-8-5-8
2)5---5---5---5
3)5---5---5---5

λόγια
κάθε που                  όλοι στη
1)8-8-7-8-7-5-87875-4-5-7-8-7-10.8.10.8.7-

στο παλιό                               του χατζηψαρρη
1)10-10-8-10-8-7-10.8.10.8.7-4-4-5-1-0------

ένας πλάι                  να βγει ο
1)8-8-7-8-7-5-87875-4-5-7-8-10-10-10-10-10-10

η παλιό παρέα                        και ο μπαγλαμάς
1)10-10-8-10-8-7-10.8.10.8.7-4-5-7-8-7-8-5-4-5
2)-------------------------------------------5-5



www.youtube.com/watch?v=oj6iTC12JFE



και μια επιθυμία αν είναι δυνατόν
"σούρα και μαστούρα" του Αν. Δελια

ευχαριστώ εκ τον προτέρων όλους
για την πολύτιμη βοήθεια τους


Τίτλος: Σούρα και μαστούρα (Ανέστης Δελιάς, "Αρτέμης")
Αποστολή από: thodoris στις Οκτώβριος 04, 2010, 02:19:19 πμ
   Σουρα Και Μαστουρα

 Ανεστης Δελιας

 Εισαγωγη : Χ2

 1η :----------10-------------8----6--5--6--8--6--5-----------------2--3--5-----5--
 2η :-8---11---------7---10--------------------------8--7--4--3--4-----------3--3--

 1η :----------10-------------8----6--5--6--8--6--5-------------------2--
 2η :-8---11---------7---10--------------------------8--7--4--3-------3--
 3η :--------------------------------------------------------------5---5--

 Λογια :

 1η :-----------10---9--------9--10------------------------5----------2--3--5---5--
 2η :-10---10-----------11-----------11---10---8---7---8-----7---4-------------3--

 1η :-----------10---9--------9--10------------------------5-----------------
 2η :-10---10-----------11-----------11---10---8---7---8-----7---4---3---3--

 1η :-----------10---9--------9--10------------------------5----------2--3--5---5--
 2η :-10---10-----------11-----------11---10---8---7---8-----7---4-------------3--

 1η :-----------10---9--------9--10------------------------5-----------------
 2η :-10---10-----------11-----------11---10---8---7---8-----7---4---3---3--



www.youtube.com/watch?v=67YNH7W649M


Τίτλος: Απ: Παρτιτούρες για Μπαγλαμά Τζουρά 3χορδο μπουζούκι...
Αποστολή από: kmellos στις Οκτώβριος 04, 2010, 12:23:06 μμ
ΟΧΙ ΡΕ ΦΙΛΕ ΕΧΩ ΤΡΕΛΑΘΕΙ ΜΕ ΤΑ ΠΑΛΙΚΑΡΙΑ! ΔΕ ΣΤΑΜΑΤΑΝΕ ΠΟΤΕ! DIY ΟΣΟ ΔΕ ΠΑΕΙ.
Κατι πρέπει να γίνει να μεζευτούνε πιο οργανωμένα σε κάποια χώρια στήλη του site παιδια..


Τίτλος: Απ: Παρτιτούρες για Μπαγλαμά Τζουρά 3χορδο μπουζούκι...
Αποστολή από: hristos στις Οκτώβριος 04, 2010, 02:04:20 μμ
Φίλε Μάκη υπέροχο τραγούδι ανέβασες!!! ΜΠΡΑΒΟ


Τίτλος: Απ: Παρτιτούρες για Μπαγλαμά Τζουρά 3χορδο μπουζούκι...
Αποστολή από: Jpon στις Οκτώβριος 04, 2010, 11:41:52 μμ
Μήπως έχει βγάλει κανείς το "Σκύλα μ'έκανες και λιώνω" του Μάρκου?Ή έστω αν ξέρει σε ποιο δρόμο παίζεται.


Τίτλος: Απ: Παρτιτούρες για Μπαγλαμά Τζουρά 3χορδο μπουζούκι...
Αποστολή από: Σωτήρης στις Οκτώβριος 05, 2010, 11:20:06 πμ
Αν ψήνεται κανείς ας ανεβάσει και κανα blues του πρίγκηπα, να καεί το site!!!
Επίσης το 'όσο βαρούν τα σίδερα' είναι φοβερό κομμάτι


Τίτλος: Ο χαρμάνης (Παύλος Σιδηρόπουλος)
Αποστολή από: thanos2121 στις Οκτώβριος 05, 2010, 11:29:20 πμ
Χαρμάνης και άφραγκος

Στίχοι - Μουσική: Παύλος Σιδηρόπουλος

Εισαγωγή - Λόγια

1η: 7-6-7-12-7-5-7-5---------8-7-6-8-7---7-7-8-10-9-10-12-10-9-8-10-12
2η: -------------------8-7-5----------------------------------------------

1η: 5-5-7-8-8-8-8-11-8-7-5-7-8-7-5------------5-7-6--7-8-7-5-------
2η: ----------------------------------8----7-8-------------------8-7-5



www.youtube.com/watch?v=RGLYLHLN5qk



Σε λίγο θα ανέβουν και άλλα δυο του Παύλου (Το μπλουζ του αϊ Ονούφρη και Το μπλουζ του Ρουμπόλα)


Τίτλος: Το μπλουζ του Άι-Ονούφρη (Παύλος Σιδηρόπουλος)
Αποστολή από: thanos2121 στις Οκτώβριος 05, 2010, 11:31:49 πμ
Το μπλουζ του αϊ Ονούφρη

Στίχοι - Μουσική: Παύλος Σιδηρόπουλος

Λόγια

1η: 5-7-9-7-9-10----11-10-9-7-9-10----5-7-9-7-9-10---11-10-9-8-7-7


1η: 5-7-9-7-9-10----11-10-9-7-9-10----15-14-11-14-11-10-10---11-10-9-8-7-7-


1η: 5-7-9-7-9-10----11-10-9-7-9-10----5-7-9-7-9-10---11-10-9-8-7-7


1η: 14-14-11-10-9-7-9-7-9-10----15-14-11-14-11-10-10---11-10-9-8-7-7-


1η: 15-15-15-15-15-14-15-17-14-11-10-11-14---15-15-15-15-15-14-15-17-14-11-10-11-10


1η: 15-15-15-15-15-14-15-17-14-11-10-11-14---15-15-15-15-15-14-15-17-14-11-10-8-7



www.youtube.com/watch?v=xrZFJTvi7fk


Τίτλος: Απ: Παρτιτούρες για Μπαγλαμά Τζουρά 3χορδο μπουζούκι...
Αποστολή από: Σωτήρης στις Οκτώβριος 05, 2010, 11:35:03 πμ
μπράβο ρε θάνο! και για τ ακούσματά σου και για την όρεξή σου


Τίτλος: Το μπλουζ του Ρουμπόλα (Παύλος Σιδηρόπουλος)
Αποστολή από: thanos2121 στις Οκτώβριος 05, 2010, 11:35:21 πμ
Το μπλουζ του Ρουμπόλα

Στίχοι - Μουσική: Παύλος Σιδηρόπουλος

Λόγια

1η: -----------------------------------
2η: 1-5-6-8-9-6-9-8---1-5-6-8-9-6-9-8
3η: -----------------------------------

1η: ---------------------------------------------------------------------------
2η: 6-6-6-6-6-9-8-6-5-6-----6-6-6-6-6-9-8-6-5-6-5-6-8----8-6-5-2-1----2-1-1
3η: --------------------------------------------------------------------6------

Όλο το παραπάνω παίζεται δύο φορές....

Ρεφραίν

1η: -------------------------------------------------
2η: 6-6-6-6-8-6-5-6---6-6-6-6-8-6-5-6----6-6-9-9-8

1η: --------------------------------------------------------
2η: 6-6-6-6-8-6-5-6---6-6-6-6-8-6-5-6---6-5-2-1-----2-1-1
3η: ------------------------------------------------6-------



www.youtube.com/watch?v=VgiBWHJUE9I


Τίτλος: Απ: Παρτιτούρες για Μπαγλαμά Τζουρά 3χορδο μπουζούκι...
Αποστολή από: Σωτήρης στις Οκτώβριος 05, 2010, 02:53:53 μμ
ρε παιδιά μήπως ξέρει κανείς κανα μαγαζάκι στη θεσσαλονίκη με ζωντανή μουσική που να παίζει τραγούδια όπως αυτα που ανεβάζετε στο forum. Εγώ μόνο την τουμπουρλίκα ξέρω


Τίτλος: Απ: Παρτιτούρες για Μπαγλαμά Τζουρά 3χορδο μπουζούκι...
Αποστολή από: nikkortis στις Οκτώβριος 05, 2010, 04:38:48 μμ
προσκηνω! μπραβο παιδια!


Τίτλος: Απ: Παρτιτούρες για Μπαγλαμά Τζουρά 3χορδο μπουζούκι...
Αποστολή από: Steve da Greek στις Οκτώβριος 05, 2010, 09:59:24 μμ
Δεν υπάρχει στην Σαλονίκη ένα καλό ρεμπετάδικο ??


Τίτλος: Απ: Παρτιτούρες για Μπαγλαμά Τζουρά 3χορδο μπουζούκι...
Αποστολή από: Σωτήρης στις Οκτώβριος 06, 2010, 01:02:15 πμ
Δυστηχώς δεν υπάρχει κάποιο γνήσιο που να ξέρω. Κι όσα λένε ρεμπετάδικα, παίζουν από σκυλάδικα μέχρι λαικά. Αν έχεις κάποιο στο νου σου πες το


Τίτλος: Απ: Παρτιτούρες για Μπαγλαμά Τζουρά 3χορδο μπουζούκι...
Αποστολή από: alterna στις Οκτώβριος 06, 2010, 04:23:45 μμ
ρε παιδιά μήπως ξέρει κανείς κανα μαγαζάκι στη θεσσαλονίκη με ζωντανή μουσική που να παίζει τραγούδια όπως αυτα που ανεβάζετε στο forum. Εγώ μόνο την τουμπουρλίκα ξέρω
Nα θυμίσω την Πριγκηπέσσα στον Λευκό Πύργο που μετά απο πολλά χρόνια αντικατέστησε επάξια θα έλεγα
την Όμορφη Νύχτα στην Παπάφη που έκλεισε το 2002..


Τίτλος: Απ: Παρτιτούρες για Μπαγλαμά Τζουρά 3χορδο μπουζούκι...
Αποστολή από: μιλτοσ στις Οκτώβριος 07, 2010, 02:56:02 πμ
Απιστευτο topic μαλλον το καλυτερο που εχω βρει στο Internet τα θερμα συγχαρητηρια μου .  ;D ;D
 Θα μπορουσε καποιος να μου κανει τη χαρη να ανεβασει το Στυλιτη του Θαναση Παπακωνσταντινου ?


Τίτλος: Απ: Παρτιτούρες για Μπαγλαμά Τζουρά 3χορδο μπουζούκι...
Αποστολή από: ΘΟΔΩΡΗΣ στις Οκτώβριος 07, 2010, 03:12:00 πμ
Μίλτο έχει ανέβει ο στυλίτης του θανάση κοίτα μερικές σελίδες πίσω.....


Τίτλος: Απ: Παρτιτούρες για Μπαγλαμά Τζουρά 3χορδο μπουζούκι...
Αποστολή από: marKiS στις Οκτώβριος 07, 2010, 05:47:06 μμ
Το μερτικό μου από την χαρά (δεν θα ξαναγαπησω ) του Μ. Λοιζου ,αυτήν την τραγουδαρα μπορεί να την κατεβάσει κανένας φίλος .


Τίτλος: Απ: Παρτιτούρες για Μπαγλαμά Τζουρά 3χορδο μπουζούκι...
Αποστολή από: Γιάννης Γεωργίου στις Οκτώβριος 07, 2010, 08:17:15 μμ
Μήπως κάποιος ξέρει το "Από περιέργεια υπάρχω" των Ξυδάκη - Ρασούλη που τραγουδά ο Παπάζογλου;

www.youtube.com/watch?v=t-LXVVbCwxE

Αδυνατώ μόνος μου.
Συγχαρητήρια σε όλα τα παιδιά για την προσπάθεια και τον κόπο τους



Τίτλος: Απ: Παρτιτούρες για Μπαγλαμά Τζουρά 3χορδο μπουζούκι...
Αποστολή από: ΜΑΚΗΣ στις Οκτώβριος 07, 2010, 10:49:11 μμ
ευχαριστώ thodoris για την άμεση ανταπόκριση

και σένα hristos για τα καλά σου λόγια

ωστόσο τόσα παιδιά εδω κάνουν πολύ καλή εργασία
σας ευχαριστώ όλους
και να σκέφτεστε πως κάποιοι από μας
είμαστε ατάλαντη αλλά μας αρέσει να προσπαθούμε
γι αυτό απλά και λάιτ (β και α =βα)!!!


Τίτλος: Απ: Παρτιτούρες για Μπαγλαμά Τζουρά 3χορδο μπουζούκι...
Αποστολή από: irini στις Οκτώβριος 08, 2010, 10:55:24 πμ
Καλησπέρα παιδιά, είμαι εντελώς καινούρια στο forum και στο τρίχορδο και ήθελα να ρωτήσω γνώμες για ευκολάκια, δλδ  από ποιά κομμάτια να ξεκινήσω. Ήδη έχω δουλέψει την "Προσευχή του μάγκα" με μια χαρά αποτελέσματα -νομίζω - σε σύγκριση με την ασχετοσύνη μου δλδ. Προσπάθησα κι άλλα όμως δεν είναι όλα τόσο εύκολα.. καμιά πρόταση για κανένα εύκολο για αρχάρια;

Επίσης, μήπως έχει ήδη ανέβει το "αδυνάτισα ο καημένος"; κι αν όχι, μήπως το έχει κανείς;


Τίτλος: Αδυνάτισα ο καημένος (Κώστας Μπέζος, "Α. Κωστής")
Αποστολή από: thanos2121 στις Οκτώβριος 08, 2010, 11:30:12 πμ
Για την Ειρήνη....

Το μπουζούκι δεν θέλει άγχος και βιασύνες. Σιγά σιγά θα στρώσει από μόνο του και πριν το καταλάβεις, δεν θα αναγνωρίζεις τον εαυτό σου...
Υπομονή. Και εγώ αυτοδίδακτος είμαι, δεν με βοήθησε κανένας δασκαλος και μετα απο καιρό, όποιο τραγούδι ήθελα, το έβγαζα μόνος μου. Υπομονή και γρατσούνισμα...Θέλει χρόνο. Αν έχεις κάποια άλλη παραγγελιά, εδώ είμαστε να σε βοηθήσουμε...

Αδυνάτισα ο καημένος

Στίχοι - Μουσική: Κώστας Μπέζος

Εισαγωγή - Λόγια

1η: 6-8-8-8--6-8-8-8----6-8-8-8-6-8-8-8-8

1η: 8-6-4----------------------------------8-6-4------------------------------
2η: -------8-6-8-4-6-8--8-6-4-6-4-2-1------------8-6-8-4-6-8--8-6-4-6-4-2-1

1η: ------------------------------------
2η: 4-6-6-6-4-6-6-6----4-6-6-6-4-6-6-6

1η: 8-6-4--------------------------------8-6-4-----------------------------
2η: -------8-6-8-4-6-8--8-6-4-6-4-2-1---------8-6-8-4-6-8--8-6-4-6-4-2-1



www.youtube.com/watch?v=k_38FH4qTMo


Τίτλος: Απ: Παρτιτούρες για Μπαγλαμά Τζουρά 3χορδο μπουζούκι...
Αποστολή από: thodoris στις Οκτώβριος 08, 2010, 11:33:24 πμ
Καλησπέρα παιδιά, είμαι εντελώς καινούρια στο forum και στο τρίχορδο και ήθελα να ρωτήσω γνώμες για ευκολάκια, δλδ  από ποιά κομμάτια να ξεκινήσω. Ήδη έχω δουλέψει την "Προσευχή του μάγκα" με μια χαρά αποτελέσματα -νομίζω - σε σύγκριση με την ασχετοσύνη μου δλδ. Προσπάθησα κι άλλα όμως δεν είναι όλα τόσο εύκολα.. καμιά πρόταση για κανένα εύκολο για αρχάρια;

Επίσης, μήπως έχει ήδη ανέβει το "αδυνάτισα ο καημένος"; κι αν όχι, μήπως το έχει κανείς;
  Καλη αρχη λοιπον με το τριχορδο!!Η Φραγκοσυριανη του Μαρκου ειναι ευκολη και στο παιξιμο και στο τραγουδι και βεβαια το τραγουδι με το οποιο οι περισσοτεροι ξεκινανε ειναι το ζειμπεκικο της Ευδοκιας.Κ τα δυο τραγουδια ειναι καπου γραμμενα στις προηγουμενες σελιδες.
  Αντε και καλες πενιες


Τίτλος: Απ: Παρτιτούρες για Μπαγλαμά Τζουρά 3χορδο μπουζούκι...
Αποστολή από: Μιλτιάδης στις Οκτώβριος 08, 2010, 04:37:40 μμ
Μπράβο ρε παιδιά.Καταπληκτικά όλα.Κι εγώ αρχάριος είμαι κι έχω κάψει δάχτυλα με όλα αυτά.Προς το παρών δεν ακούγονται και τόσο ωραία αυτά που βγάζω αλλά βελτιώνομαι σίγουρα.Και πάλι μπράβο μπράβο μπράβο.
Δεν νομίζω ότι μπορώ ακόμα να βοηθήσω με κάποιο τραγούδι.Ελπίζω στο μέλλον.Αντιθέτως έχω μια παραγγελιά αν γίνεται. Το "ΕΡΙΝΑΚΙ" απο Ρούκουνα. Το βρήκα εδώ http://www.youtube.com/watch?v=XaeLVNnwFpE
Αν μπορεί να βοηθήσει κάποιος....ευχαριστώωωωω


Τίτλος: Απ: Παρτιτούρες για Μπαγλαμά Τζουρά 3χορδο μπουζούκι...
Αποστολή από: irini στις Οκτώβριος 08, 2010, 05:42:47 μμ
Ευχαριστώ πολύ, να'στε καλά! Πολύ χάρηκα που ανακάλυψα το φόρουμ! :) Θησαυρός!


Τίτλος: Απ: Παρτιτούρες για Μπαγλαμά Τζουρά 3χορδο μπουζούκι...
Αποστολή από: Mpagianteras στις Οκτώβριος 08, 2010, 10:41:22 μμ
μηπως μπορει καποιος το "σιγα μην κλαψω" του Αγγελάκα??? ???


Τίτλος: Απ: Παρτιτούρες για Μπαγλαμά Τζουρά 3χορδο μπουζούκι...
Αποστολή από: ΜΑΚΗΣ στις Οκτώβριος 09, 2010, 12:19:26 πμ
μπράβο thanos2121 τα μπλουζ άπαιχτα
 thanks!!!

καλή συνέχεια στα νέα παιδιά!!!
και υπομονή


Τίτλος: Απ: Παρτιτούρες για Μπαγλαμά Τζουρά 3χορδο μπουζούκι...
Αποστολή από: philipas στις Οκτώβριος 09, 2010, 09:58:57 πμ
Καλημέρα σας με λένε Φίλιππα και είμαι 30 ετών ,γραφω τα παρακάτω με αφορμή το φίλο τον Thano,
 σαν συμβουλή .
είμαι σε αυτο το Forum σχεδον απο την αρχη του,ειμαι αρχαριος στο μπουζουκι και το γραντζουναω περι τα 3 χρονια.
και οτι εχω μαθει το εμαθα μεσα απο αυτο το φορουμ.το οτι ειμαι ολομοναχος σε αυτη μου την προσπαθεια θεωρω οτι ειναι πολυ σημαντικο διοτι δεν εχω κοντα μου καποιον φιλο που να ασχολειται ή μια παρεα βρε παιδι μου να δω απο καποιον που παιζει μπουζουκι καποια πραγματα και να τα "κλεψω",που θελω να καταληξω ...μπορει να παιζεις αρκετη ωρα καθημερνως και η εξελιξη σου να μην ειναι η αναμενωμενη,και να εισαι και τελειως λαθως πχ στον ρυθμο,εγω επειδη αφενος ηθελα να ξερω τι παιζω και πως πρεπει να το παιζω ξεκινησα μαθηματα σε εναν "δασκαλο"για να μαθω καποια πραγματα που νομιζω ειναι βασικα,οπως δακτυλισμο κτλ.Θα παροτρυνα λοιπον καποιους οι οποιοι ειναι στην ιδια κατασταση με εμενα να το σκεφτουν.
Ευχαριστω και συγνωμη αν σας κουρασα.


Τίτλος: Απ: Παρτιτούρες για Μπαγλαμά Τζουρά 3χορδο μπουζούκι...
Αποστολή από: irini στις Οκτώβριος 09, 2010, 06:56:44 μμ
Καλημέρα σας με λένε Φίλιππα και είμαι 30 ετών ,γραφω τα παρακάτω με αφορμή το φίλο τον Thano,
 σαν συμβουλή .
είμαι σε αυτο το Forum σχεδον απο την αρχη του,ειμαι αρχαριος στο μπουζουκι και το γραντζουναω περι τα 3 χρονια.
και οτι εχω μαθει το εμαθα μεσα απο αυτο το φορουμ.το οτι ειμαι ολομοναχος σε αυτη μου την προσπαθεια θεωρω οτι ειναι πολυ σημαντικο διοτι δεν εχω κοντα μου καποιον φιλο που να ασχολειται ή μια παρεα βρε παιδι μου να δω απο καποιον που παιζει μπουζουκι καποια πραγματα και να τα "κλεψω",που θελω να καταληξω ...μπορει να παιζεις αρκετη ωρα καθημερνως και η εξελιξη σου να μην ειναι η αναμενωμενη,και να εισαι και τελειως λαθως πχ στον ρυθμο,εγω επειδη αφενος ηθελα να ξερω τι παιζω και πως πρεπει να το παιζω ξεκινησα μαθηματα σε εναν "δασκαλο"για να μαθω καποια πραγματα που νομιζω ειναι βασικα,οπως δακτυλισμο κτλ.Θα παροτρυνα λοιπον καποιους οι οποιοι ειναι στην ιδια κατασταση με εμενα να το σκεφτουν.
Ευχαριστω και συγνωμη αν σας κουρασα.

Φίλε Φίλιππε,
δεν κούρασες καθόλου, αντίθετα απ'ότι έχω δει στο φορουμ καλοδεχούμενες είναι οι γνώμες όλων. Πάνω σε αυτά που λες, έχω να πω ένα δυο πράγματα.
Γνώρισα κάποτε έναν άνθρωπο που έπαιζε μπουζούκι -αυτοδίδακτος- τι γλέντια γίνονταν στο σπίτι τους με αυτό το μπουζουκάκι δε λέγεται! Μέχρι που βρέθηκε κάποιος και του είπε ότι δεν-ξέρω-τι δεν κάνει "σωστά" κι ο άνθρωπος πικράθηκε και το έβαλε στην άκρη. Παν τα γλέντια, σώπασε το σπίτι... κρίμα δεν είναι;
Κι έπειτα εγώ είμαι τώρα σε νησί άγονης γραμμής για φέτος. Γιατί να μην ασχοληθώ με κάτι που πάντα ήθελα κι αγαπάω; Ας μην υπάρχει και δάσκαλος, πού να τον βρω εδώ; Δάσκαλος είναι η μουσική, κατεβάζω και βίντεο απο ανθρώπους που παίζουν στο youtube και τα παίζω μετά στο αργό να βλέπω τα χέρια όσο γίνεται. Κι ακούω όσο πιο πολύ μπορώ κι άμα δεν είμαι και καλή μαθήτρια ας μου βάλει κάτω από τη βάση, δε βαριέσαι.. περνάω εγώ καλά προσπαθώντας; Δεν πάω για επαγγελματίας, για προσωπική ευχαρίστηση είναι, αν κάποτε μπορέσω και παίξω κι ακούγεται κάπως εντάξει και για παρέα, ακόμα καλύτερα!

Θα σου πω, για παράδειγμα, το εξής: Έγχορδο δεν είχα ακουμπήσει ποτέ. Πριν μια βδομάδα ήρθε στα χέρια μου ένας ταμπουράς με κινητούς μπερντέδες, ήθελα να μάθω να παίζω παραδοσιακά. Δεν ήξερα να κουρδίζω, δεν ήξερα τίποτα. Βρήκα στο ιντερνετ ένα online κουρδιστήρι και είδα πως ήταν κουρδισμένος ρε-λα-μι.
Τα είχε μάλιστα και με τον ευρωπαικό τρόπο, χρειάστηκε να ψάξω τις αντιστοιχίες πάλι στο ιντερνετ. Κάπου είχε πάρει το αυτί μου για τις ταμπλατούρες, ούτε ήξερα να τις διαβάζω, έπεσα σε αυτό το φόρουμ και κατάλαβα. Αποφάσισα να το κουρδίσω σαν τρίχορδο μπουζούκι και είπα "ξεκινάω έτσι" (κι εδώ που τα λέμε καλύτερα, γιατί είναι πιο κοντά στις βιωματικές μου γνώσεις, παραδοσιακά άρχισα να  ακούω πολύ αργότερα, οπότε ξεκινάω από κατι που το έχω οικείο στο αυτί).
Γύρισα τον ταμπουρά -με τη βοήθεια του κουρδιστηριού πάντα- σε ρε-λα-ρε. Και για να διαβάσω τις ταμπλατούρες έψαξα σε ένα site τι νότα αντιστοιχεί σε κάθε τάστο του τρίχορδου, ώστε να βρω μετά τις θέσεις τους πάνω στον μανίκι μου -αφού εγώ δεν έχω τάστα ακριβώς αλλά μπερντέδες. 

Την ίδια μέρα άρχιζα να δοκιμάζω ένα από τα αγαπημένα μου τραγούδια. Και η χαρά που παίρνω δεν περιγράφεται!
Αν η διαδικασία που έκανα είναι σωστή ή όχι δεν ξέρω (το θέτω κι ως ερώτημα) αλλά εμένα εντάξει μου ακούγεται.

Με λίγα λόγια για μένα είναι σημαντικό να ξέρει κανείς τι θέλει. Αν πάει κανείς για επαγγελματίας, ναι, εκεί ΔΕ χωράνε άγνοια και προχειρότητες. Αλλά άμα το κάνει κανείς γιατί χαίρεται η ψυχή του, εγώ θα έλεγα το αντίθετο από αυτό που λες.. Να μην το σκεφτούν καθόλου και ΚΑΛΕΣ ΠΕΝΙΕΣ!
Πω-πω, εγώ κι αν κούρασα! υπόσχομαι να ΜΗΝ ξαναμιλήσω τόσο!




Τίτλος: Απ: Παρτιτούρες για Μπαγλαμά Τζουρά 3χορδο μπουζούκι...
Αποστολή από: Αγγελος στις Οκτώβριος 09, 2010, 07:26:08 μμ
Παιδιά μία από τα ίδια και εγώ...

Εντελώς άσχετος σχετικά με την μουσική ή οποιοδηποτε όργανο, στα 31 μου να καρφώθηκε να μάθω μπουζούκι, μετά από ένα γλέντι στο χωριο της γυναίκας μου, όπου 2 θειοι της και ένας ξάδερφος σκάσαν μύτη με τα οργανα τους και το τι γλέντι ακολούθησε, δεν περιγράφεται...

Το τρίχορδο αγοράστηκε πριν κανα τετραμηνο.
Δεν έχω ουτε τον χρόνο, ουτε τα χρήματα πάω σε κάποιον δάσκαλο.

Αλλά το έχω το ...ημενο ΤΟΣΟ μεράκι που μέσα σ'ένα τετράμηνο, μπορώ πλέον να παίξω την βασική μελωδία (σχεδόν) οποιουδήποτε τραγουδιου προσπαθήσω. Βέβαια τα τραγουδια "μου" δεν έχουν ουτε συγχορδίες, ούτε γεμίσματα και σίγουρα χάνω και κάποιες νότες αλλά η ικανοποίηση που βγαίνει όταν "βγάζω" ένα τραγούδι, δεν λέγεται! Που θα πάει! Με τον καιρό θα βάλω και συγχορδίες και γεμίσματα... Μεράκι να έχεις.

Αν δεν υπήρχε το συγκεκριμένο σάιτ, να μου δώσει κάποια πατήματα, για να αρχίσω, ίσως να είχα απογοητευτεί και να τα είχα παρατήσει. Οπότε να ευχαριστήσω και γω όλα τα παιδιά για τον κόπο που έχουν κάνει να ανεβάσουν όλα αυτα τα κομμάτια.

Σε καναδυο μέρες θα ανεβασω την "Φάμπρικα" του Χαλκια (μουσική: Μαρκόπουλος)
και θα ήθελανα ζητήσω και γω το  "Ερηνακι" που ζήτησε και ο φίλος ο Μιλτιαδης λίγο πιο πάνω


Τίτλος: Απ: Παρτιτούρες για Μπαγλαμά Τζουρά 3χορδο μπουζούκι...
Αποστολή από: philipas στις Οκτώβριος 09, 2010, 07:52:51 μμ
Νομιζω πως ειστε συγνωμη κιολας αλλα λιγο εκτος θεματος,αφενος δεν ειπα ποτε να σταματησουν οσοι παιζουν μονοι τους και να πανε σε δασκαλο και αφετερου και εγω εχω μαθει 5 τραγουδια και τα παιζω με την γυναικα μου και γουσταρω,αλλα αφου ασχολουμαι που ασχολουμαι γιατι να μην το κανω σωστα?προσωπικη αποψη παντα εκφερω και ουδεποτε αναφερθηκα στον επαγγελματισμο του θεματος,ουτως ή αλλιως εγω παιζω τελειως για παρτυ μου και τα πινω και μονος μου και γουσταρω!


Τίτλος: Απ: Παρτιτούρες για Μπαγλαμά Τζουρά 3χορδο μπουζούκι...
Αποστολή από: irini στις Οκτώβριος 09, 2010, 08:03:40 μμ
μπορεί Φίλιππα να παρανόησα αυτό το "να το σκεφτούν", όλα καλά  :)


Τίτλος: Απ: Παρτιτούρες για Μπαγλαμά Τζουρά 3χορδο μπουζούκι...
Αποστολή από: philipas στις Οκτώβριος 09, 2010, 08:07:15 μμ
μπορεί Φίλιππα να παρανόησα αυτό το "να το σκεφτούν", όλα καλά  :)
Προφανώς

Για δασκαλο ενννοουσα να το σκεφτουν....


Τίτλος: Απ: Παρτιτούρες για Μπαγλαμά Τζουρά 3χορδο μπουζούκι...
Αποστολή από: marKiS στις Οκτώβριος 09, 2010, 11:14:10 μμ
Το όργανο το παίζουμε πρώτα για τον εαυτό μας (εξαιρούνται οι επαγγελματίες) γιατί μας ικανοποιεί .Σίγουρα αν υπάρχει ευχέρεια είναι καλύτερα να πάρει κάποιος κάποια μαθήματα άλλα δεν είναι πάντα εύκολο .αλώστε οι πατριάρχες του μπουζουκιού αυτοδίδακτοι ήταν .


Τίτλος: Απ: Παρτιτούρες για Μπαγλαμά Τζουρά 3χορδο μπουζούκι...
Αποστολή από: Μιλτιάδης στις Οκτώβριος 10, 2010, 04:10:40 πμ
Νομίζω θα συμφωνήσω με τον marKiS. Το βασικότερο είναι να έχεις κέφι εσύ ο ίδιος να παίξεις. Από εκεί και πέρα είναι διαφορετική ιστορία. Είναι καθαρά ατομικό θέμα. Πως μαθαίνει πιο εύκολα ο καθένας. Δεν είναι κακό να προχωρήσεις μόνος αλλά ούτε και να κάνεις κάποια μαθήματα αν κρίνεις ότι αυτό μπορεί να σε βοηθήσει να πετύχεις αυτό που επιθυμείς πιο γρήγορα. Αντιθέτως νομίζω ότι είναι πιο εύκολο να μάθεις μια βασική θεωρία πάνω στις νότες και στο πεντάγραμμο και σε όλα αυτά. Ίσως να μην σε κάνουν Βαμβακάρη αλλά σίγουρα θα διευκολύνουν. Απλά νομίζω ότι η όλη αντίδραση πάνω στο θέμα της διδασκαλίας έρχεται επειδή σπάνια θα συναντήσεις δασκάλους που θα αποχωριστούν αυτό το αυστηρό ύφος της μουσικής. Σε προετοιμάζουν δηλαδή όπως και να έχει για κονσέρτα και όχι για γλέντια με κρασί και καλή παρέα.


Τίτλος: Απ: Παρτιτούρες για Μπαγλαμά Τζουρά 3χορδο μπουζούκι...
Αποστολή από: Σωτήρης στις Οκτώβριος 10, 2010, 04:43:05 πμ
Μπράβο για το θάρρος της γνώμης σας. Κάτα κάποιο περίεργο τρόπο μου φαίνεται οτι όλοι συμφωνούμε (ανεξαρτήτως επιπέδου δεξιοτεχνίας). Άλλωστε ο καθένας μπορεί να φτάσει σε κάποιο επίπεδο που μόνο αυτος θα είναι ευχαριστημένος είτε με δάσκαλο είτε χωρις.Το σημαντικότερο είναι ότι βρίσκουμε ένα πολλά υποσχόμενο και αισιόδοξο καταφύγιο σ' αυτό το forum χωρίς καν να έχουμε αντικρίσει ο ένας τα μάτια του άλλου και ο καθένας με διαφορετικά ακούσματα. Δεν είναι τρομερό? Εύχομαι οι 53 σελίδες να γίνουν όσο το δυνατόν περισσότερες, με ειλικρινείς απόψείς και ταμπλατούρες τραγουδιών που ομορφαίνουν όλο και πιο πολύ την ψυχή μας


Τίτλος: Απ: Παρτιτούρες για Μπαγλαμά Τζουρά 3χορδο μπουζούκι...
Αποστολή από: alterna στις Οκτώβριος 11, 2010, 09:46:52 πμ
Σε σχέση με αυτά που συζητήθηκαν παραπάνω θα ήθελα να παραθέσω ένα απόσπασμα
απο μια συνέντευξη του Ψαραντώνη προς επίρρωση των λεγόμενων σας με τα οποία βεβαίως συμφωνώ..

Μουσική πότε άρχισες να παίζεις;
Από μικρός. Στα 10 μου έπαιζα τη λύρα και στα 12-13 έβγαζα δική μου μουσική.
Τόσο μικρός; Πώς γίνεται;Μόνο του έρχεται. Εκεί που περπατάς σου 'ρχεται στο κεφάλι και πιάνεις τ' όργανο.
Σου βγαίνει αμέσως ή σιγά-σιγά;
Σιγά-σιγά το φτιάχνεις καλύτερα... Άκου, εγώ δεν παίζω ένα κομμάτι το ίδιο ποτέ. Αμέσως μετά να το ξαναπαίξω δε θα' ναι το ίδιο. Αλλιώς το στολίζεις τη μια, αλλιώς την άλλη. Το κεντάς, το προχωράς, το πας μακριά. Η μουσική, παιδί μου, είναι χιλιόμετρα. Μην ακούς αυτούς που βάζουν κουκκίδες στο χαρτί ή τους άλλους που τις διαβάζουν.
Δεν είναι μουσική αυτή;
Όχι, δεν είναι! Δε γράφεται το συναίσθημα του καλλιτέχνη στο χαρτί. Ούτε πουλιέται ούτε αγοράζεται. Η μουσική είναι χαρακτήρας. Μπορούν όλα τα χαρτιά και όλες οι κουκκίδες να μου κάνουν έναν Νίκο; (σ.σ. εννοεί τον αδερφό του, τον Νίκο Ξυλούρη). Ας πάρουν τραγούδια του Νίκου να τα μάθουν οι άλλοι και να τα πούνε.... Από κει που είναι αντρίκια, θα τα κάνουν... πούστικα! (γέλια)
Εσύ νότες ξέρεις;Ναι, ξέρω. Και λοιπόν; Δεν τις χρειάζομαι. Οι νότες είναι αυτό που λέει ο Καραγκιόζης: «Ντο ρε μι φασολάδα!» (σκάει στα γέλια)... Πιτσιρικάκι το 'δα αυτό και γέλασα πιο πολύ παρά ποτέ μου.
Για τους μουσικολόγους τι γνώμη έχεις;
Είναι κομπλεξικοί. Λόγια, θεωρίες και ξενομανία, το καλό δεν το θέλουνε.
Γιατί δεν το θέλουν;Γιατί δεν μπορούν να το κουμαντάρουν. Το ζηλεύουν επειδή δεν μπορούν να το κάνουν οι ίδιοι.


Τίτλος: Τα καβουράκια (Βασίλης Τσιτσάνης)
Αποστολή από: Steve da Greek στις Οκτώβριος 11, 2010, 08:11:53 μμ
Καλές όλες αυτές οι γνώμες...κανα τραγουδάκι δεν βλέπω όμως
Αν χρειάζεται διορθώσεις...

Τα καβουράκια

Εισαγωγή

----------9-10-12--10-9-------------------
12-10-12------------------------------------
---------------------------------------------
(επαναλαμβάνεται δυό φορές)
κλείσιμο εισαγωγής
--------------9-10-12-14-12-12--10-9----------------
12-10-10-12----------------------------12-10--10---10
-----------------------------------------------0----0---

Στίχοι
Στου γιαλού τα βοτσαλάκια     /     κάθονται     δυο    καβουράκια
---------------4-5-7-4-5-5-5------------------4-5-7-4-5-5-5------------
5-5---7--7--5-----------------5-5---7--7--5---------------------
---------------------------------------------
έρμα παραπονεμένα/         κι όλο κλαίνε τα καημένα
4-------------------------4--------------------
--7-5-7-5-3-2-3-5-7-5------7-5-7-5-3-2-3-3-3-3
---------------------------------------------

Κι η μαμά τους η κυρία καβουρίνα/ πάει τσάρκα με το σπάρο στη Ραφήνα
-------5---4----------4-4-5-5----4-5--7-7---7-7-7-7--10-9-7-5-5-5------
5-5-----------7-5-7-7-------------------------------------------
---------------------------------------------------------------

κι όλο κλαίνε τα καβουράκια/  στου γιαλού,στου γιαλού τα βοτσαλάκια
10--9--7-7-----10-9-7-7-----5--5--5-----5----5---5--9-7-7-5--5--
-------------10---------------------------------------------------
--------------------------------------------------------------------



www.youtube.com/watch?v=BO0Lkt9PAsE


Τίτλος: Απ: Παρτιτούρες για Μπαγλαμά Τζουρά 3χορδο μπουζούκι...
Αποστολή από: matzore στις Οκτώβριος 12, 2010, 03:38:05 πμ
gia to thema partitoures
poli paloi mousikoi eitan autodidaktoi ala an diawazete to wiografikotous
olo kai kapios tous edixne kati akomi kai i megaloi deksiotexnes sinantiosoustan kai alazane
gnomes .kai i partitoura opios kseri na diawazi ( DEN eine kai toso diskolo) EINE ENAS
kalos odigos pou se woithaei pos na ksekinisis apo eki kai pera sou eine pio eukolo na to stolisis opos nomizis esei
OPOS KAI EDO STIN SELIDA AUTI ME TIS TABLATOURES WOITHANE POLI
giuto min eisopedonete kati pou yparxi kai exoun grauti megales mousikes epitixies
signomi gia ta ftoxa ellinikamou kai ta orthografika lathi
giasas kai kales penies
p.s o rebetis kairo exei na mas wali kapio tragoudaki



Τίτλος: Απ: Παρτιτούρες για Μπαγλαμά Τζουρά 3χορδο μπουζούκι...
Αποστολή από: Σωτήρης στις Οκτώβριος 12, 2010, 07:29:27 μμ
βάζω παραγγελιές: Mε πλάνεψες μποέμισα Μάρκου Βαμβακάρη
                           Πλυμήρα   Μάρκου Βαμβακάρη
                          Χθες το βράδυ στου Καρίπη Γιώργου Κατσαρού
                          Το χαρέμι στο χαμάμ   Ανέστη Δελιά
                          Όσο βαρουν τα σίδερα


Τίτλος: Απ: Παρτιτούρες για Μπαγλαμά Τζουρά 3χορδο μπουζούκι...
Αποστολή από: nikkortis στις Οκτώβριος 13, 2010, 12:36:24 πμ
κοιτα ποσο ομορφα και απο καρδια μιλατε ολοι για το ιδιο οργανο! με ποσο σεβασμο και αγαπη για το τριχορδο μπουζουκι! χαιρομαι πραγματικα που βρηκα αυτο το φορουμ μετα απο πολυ καιρο που εψαχνα σε ολο το ιντερνετ ταμπλατουρες και βιβλια για τριχορδο μπουζουκι μπαγλαμα! παμε γερα και ανεβαζουμε οτι εχει ο καθενας για να τα μερακια μας! μεγαλη απολαυση και ηρεμια ψυχης! ανεβαζουμε ρεμπετικα, παραδοσιακα, θαναση παπακωνσταντινου απο ολα τα ειδη!!!!παμε ......!!!!!


Τίτλος: Απ: Παρτιτούρες για Μπαγλαμά Τζουρά 3χορδο μπουζούκι...
Αποστολή από: matzore στις Οκτώβριος 13, 2010, 03:24:56 πμ
min ksexname kai to oxtaxordo


Τίτλος: Απ: Παρτιτούρες για Μπαγλαμά Τζουρά 3χορδο μπουζούκι...
Αποστολή από: Γιώργος Δήμου στις Οκτώβριος 13, 2010, 11:39:19 πμ
Τέλεια προσπάθεια, για μας τους καινούργιους είναι μεγάλη βοήθεια. Θα ήθελα να σας ζητήσω ένα τραγουδάκι που γουστάρω πάρα πολύ. Είναι το " ήρθαμε να γλεντήσουμε " [youtube]http://www.youtube.com/watch?v=sJZEihmtLgU[/youtube]
Ευχαριστώ πολύ και καλές πενιές.


Τίτλος: Απ: Παρτιτούρες για Μπαγλαμά Τζουρά 3χορδο μπουζούκι...
Αποστολή από: Σωτήρης στις Οκτώβριος 16, 2010, 08:35:52 μμ
Αλάνια μας έχετε καλομάθει τόσο καιρο εμάς τους νέους (αυτοδίδακτους στο τρίχορδο) και τωρα που έχει κάμποσες μέρες χωρίς κίνηση το φόρουμ μου κακοφαίνεται... Άντε ανεβάστε κανα τραγουδάκι.

Έχω και μια  σοβαρή πρόταση: Ψήνεστε κάποια μέρα να συναντηθούμε κάπου με τα όργανα? Αν ναι να οργανωθούμε και να επικοινωνίσουμε


Τίτλος: Απ: Παρτιτούρες για Μπαγλαμά Τζουρά 3χορδο μπουζούκι...
Αποστολή από: nikkortis στις Οκτώβριος 16, 2010, 09:46:11 μμ
Ειρηνη αυτο θελεις? μπες εδω και δες το PSILA TA PARATHYRIA SOU
Markos VAMVAKARIS στην μεση της σελιδας περιπου http://www.diymusic.org/index.php?option=com_smf&Itemid=107&topic=2390.60


Τίτλος: Απ: Παρτιτούρες για Μπαγλαμά Τζουρά 3χορδο μπουζούκι...
Αποστολή από: nikkortis στις Οκτώβριος 16, 2010, 09:50:14 μμ
ρε παιδια κατι παραξενο. χανονται μηνυματα απο το φορουμ. δεν βλεπω το ποστ της Ειρηνης δεν βλεπω το επομενο ποστ που εκανε ο Σωτηρης και απαντησε στην Ειρηνη..... ? τι γινεται?


Τίτλος: Απ: Παρτιτούρες για Μπαγλαμά Τζουρά 3χορδο μπουζούκι...
Αποστολή από: Σωτήρης στις Οκτώβριος 16, 2010, 09:56:38 μμ
διαγραφή. Αυτό έγινε. Μπράβο για την εξυπηρέτηση πάντως


Τίτλος: Απ: Παρτιτούρες για Μπαγλαμά Τζουρά 3χορδο μπουζούκι...
Αποστολή από: irini στις Οκτώβριος 16, 2010, 10:40:56 μμ
Παιδιά, ευχαριστώ και συγγνώμη για τη διαγραφή, έλεγα πως βρίσκω εξαιρετική την ιδέα του Σωτήρη αλλά μετά ζητούσα ένα κομμάτι που υπήρχε ήδη και για να μη γεμίζει το forum με παραγγελιές από κομμάτια που υπάρχουν ήδη, το διέγραψα.
Εγώ, πάντως, άμα γίνει αυτή η συνάντηση, δε θα ήθελα να τη χάσω! Μόνο που είμαι μακριά και δεν είναι στο χέρι μου.
Και πάλι συγγνώμη για τη διαγραφή, την έκανα πριν δω ότι είχε απαντήσει κάποιος ήδη.


Τίτλος: Απ: Παρτιτούρες για Μπαγλαμά Τζουρά 3χορδο μπουζούκι...
Αποστολή από: irini στις Οκτώβριος 16, 2010, 11:57:48 μμ
Να διευκρινήσω κιόλας πως μετά την απάντηση, άρχισα να ψάχνω για τραγούδια στις σελίδες ανοίγοντας άλλη, δεύτερη καρτέλα, οπότε έπεσα και πάνω σ'αυτό που ζητούσα. Γύρισα στην 1η καρτέλα που η απάντησή μου φαινόταν τελευταία -δεν έκανα κι ανανέωση- και διέγραψα.
Πάντως κι εσείς, βρε παιδιά, πολύ γρήγοροι, 2-3 σελίδες πρόλαβα να σκρολάρω, πού να μου πάει το μυαλό ότι θα είχε απαντήσεις και μάλιστα πάνω από μια. καινούρια στο μπουζούκι, καινούρια και στα fora.. πού θα πάει, θα μάθω :)


Τίτλος: Απ: Παρτιτούρες για Μπαγλαμά Τζουρά 3χορδο μπουζούκι...
Αποστολή από: Σωτήρης στις Οκτώβριος 17, 2010, 04:44:43 πμ
Να διευκρινήσω κιόλας πως μετά την απάντηση, άρχισα να ψάχνω για τραγούδια στις σελίδες ανοίγοντας άλλη, δεύτερη καρτέλα, οπότε έπεσα και πάνω σ'αυτό που ζητούσα. Γύρισα στην 1η καρτέλα που η απάντησή μου φαινόταν τελευταία -δεν έκανα κι ανανέωση- και διέγραψα.
Πάντως κι εσείς, βρε παιδιά, πολύ γρήγοροι, 2-3 σελίδες πρόλαβα να σκρολάρω, πού να μου πάει το μυαλό ότι θα είχε απαντήσεις και μάλιστα πάνω από μια. καινούρια στο μπουζούκι, καινούρια και στα fora.. πού θα πάει, θα μάθω :)

Ναι ρε συ εντάξει δεν έκανες και κανα έγκλημα... Δεν υπάρχει λόγος ούτε να απολογείσαι ούτε να παρεξηγηθεί κανείς


Τίτλος: Απ: Παρτιτούρες για Μπαγλαμά Τζουρά 3χορδο μπουζούκι...
Αποστολή από: nikkortis στις Οκτώβριος 17, 2010, 03:51:11 μμ
ελα ξεκολαμε ..... απλα ρωτησα γιατι φοβηθηκα μην εχουμε απωλειες σε ποστ και χασουμε κανενα τραγουδι..... ;D


Τίτλος: Απ: Παρτιτούρες για Μπαγλαμά Τζουρά 3χορδο μπουζούκι...
Αποστολή από: ΜΑΚΗΣ στις Οκτώβριος 17, 2010, 11:22:55 μμ
"Έχω και μια  σοβαρή πρόταση: Ψήνεστε κάποια μέρα να συναντηθούμε κάπου με τα όργανα? Αν ναι να οργανωθούμε και να επικοινωνίσουμε"

ΜΕΣΑ ΓΙΑ ΜΕΣΑ!!!

"'ασε τα πως και τα γιατί
και πάμε γι αμαρτία
για να αισθανθούμε δηλαδή
εν πλήρει απαρτία"


Τίτλος: Απ: Παρτιτούρες για Μπαγλαμά Τζουρά 3χορδο μπουζούκι...
Αποστολή από: hristos στις Οκτώβριος 18, 2010, 06:05:39 πμ
Kαλή η ιδέα για συνάντηση, ας συμφωνήσουν κι΄ άλλοι και ας αρχίσουμε να το οργανώνουμε!


Τίτλος: Απ: Παρτιτούρες για Μπαγλαμά Τζουρά 3χορδο μπουζούκι...
Αποστολή από: 3xordos στις Οκτώβριος 18, 2010, 03:09:59 μμ
ontos kali idea


Τίτλος: Απ: Παρτιτούρες για Μπαγλαμά Τζουρά 3χορδο μπουζούκι...
Αποστολή από: ΜΑΚΗΣ στις Οκτώβριος 19, 2010, 09:09:42 μμ
Τι λέτε να ξεκινήσουμε με την πόλη που βολεύει;
Η Θεσσαλονίκη για παράδειγμα  τι λέει;


Τίτλος: Οι φωνογραφιτζήδες [1] (Γιώργος Μπάτης, "Αμπάτης")
Αποστολή από: Andar στις Οκτώβριος 20, 2010, 04:47:24 μμ
Καλοσήλθα! (νέος γαρ)  ;D

Λοιπόν,

οι φωνογραφιτζήδες του Μπάτη

Εισαγωγή (x2)

 --------------8-7-5-3-2-0-2-3--5-7-8-10-
 -3--5-5-5-5--------------------------------

 --------------8-7-5-3-2-0-2-3----3---3-
 -3--5-5-5-5---------------------3---3---

Λόγια (x2)

-3-3-7-7-3-3-7-7-3--5-3-2-0--2-3-5-7-7--
-----------------------------------------------

-3-3-7-7-3-3-7-7-3--5-3-2-0--0-0-0-0---
---------------------------------------------

Όλοι οι φωνογραφιτζήδες είναι μάγκες και ατσίδες,
είναι μάγκες και ατσίδες όλοι οι φωνογραφιτζήδες.

Όσα φράγκα κονομάνε στην ταβέρνα τ' ακουμπάνε,
στην ταβέρνα τ' ακουμπάνε όσα φράγκα κονομάνε.

Με μπερδέψανε μια νύχτα σα μπαρμπούνι μες τα δίχτυα,
σα μπαρμπούνι μες τα δίχτυα με μπερδέψανε μια νύχτα.

Μου τη φέρανε ένα βράδυ σα μουγγρί στο παραγάδι,
σα μουγγρί στο παραγάδι μου τη φέρανε ένα βράδυ.

Με ψαρέψανε μια ημέρα μέσα καλέ στον Περαία,
μέσα καλέ στον Περαία με ψαρέψαν μια ημέρα.



www.youtube.com/watch?v=jxEyOfZ7N84



Παρότι γνωρίζω λίγη θεωρία μουσικής, στα όργανα είμαι αυτοδίδακτος,
επομένως διορθώστε τα όσα λάθη υπάρχουν.
Γράφτηκα σήμερα αλλά τη σελίδα τη ξέρω τουλάχιστον δύο μήνες,
το θέμα το έχω ψάξει όλο αλλά δε θυμάμαι αν υπάρχει ήδη το τραγούδι
και να πω την αλήθεια, αυτή τη στιγμή βαριέμαι να ψάξω.
Ελπίζω να μην υπάρχει.




Τίτλος: Απ: Παρτιτούρες για Μπαγλαμά Τζουρά 3χορδο μπουζούκι...
Αποστολή από: *MadmaX* στις Οκτώβριος 20, 2010, 09:57:57 μμ
Καλώς ήρθες φίλε :-)


Τίτλος: Απ: Παρτιτούρες για Μπαγλαμά Τζουρά 3χορδο μπουζούκι...
Αποστολή από: Σωτήρης στις Οκτώβριος 21, 2010, 01:22:58 μμ
Σωστός ο ΜΑΚΗΣ... Κι εμένα με βολεύει η Θεσσαλονίκη. Έλα να μαζεύεται κόσμος σιγά σιγά.
Καλως ήρθες Αndar και μπράβο για το τραγουδάκι


Τίτλος: Απ: Παρτιτούρες για Μπαγλαμά Τζουρά 3χορδο μπουζούκι...
Αποστολή από: philipas στις Οκτώβριος 22, 2010, 12:19:14 μμ
Καλως ηρθες Φιλε,
 οτι ξερεις να το βαζεις μπορει να ειναι και διαφορετικες οι εκτελεσεις που εχει ο καθενας.
Καλη συνεχεια


Τίτλος: Κλείσε τα μάτια σου [εισαγωγή] (Νίκος Πορτοκάλογλου)
Αποστολή από: lep στις Οκτώβριος 22, 2010, 08:47:04 μμ
H HSAGWGH GIA TO  (KLEISE TA MATIA SOY) POY DEN THN EXEI

1      032320 03232003232023335557
2 0000        00        0
3      0         0         0

1      032320 032320 0323202333222  0
2 0000        00       00                   40
3      0         0         0                     0



www.youtube.com/watch?v=Bahs9TKJjNk


Τίτλος: Χθες το βράδυ στου Καρίπη (Γιώργος Κατσαρός, "Θεολογίτης")
Αποστολή από: Andar στις Οκτώβριος 23, 2010, 12:07:59 πμ
Κάποιος ζήτησε το

Χθές το βράδυ στου καρίπι.

Το πρώτο μέρος

-0--7-7-6-7-6-3-6-7-6-3-2--0--8-7-6--7-
---------------------------------------------

-0--7-7-6-7-6-3-6-7-6-3-2--0---0---0-
----------------------------------0---0---

Το δεύτερο μέρος

-0--3-3-2--0--7--0--3-3-2--0--8-7-6--7-
---------------------------------------------

-0--3-3-2--0--7--0--3-3-2--0----0---0-
----------------------------------0---0---

Στήν εισαγωγή παίζει την ίδια μελωδία με τα λόγια
ακούστε το τραγούδι για να τα βάλετε στη σειρά

Άιντε χτες το βράδυ στου Καρίπη
άιντε εφουμάραμε χασίσι
άιντε εφουμάραμε την τσίκα
άντε με 'να μάγκα απ' τη Σύρα

Άιντε κι ήρθε κι ένας απ' την Πάτρα
άιντε και στον κάναμε πατάτα
άντε κι άλλος ένας απ' το Βόλο
άντε και φουμάρισ' ένα τόνο

Άιντε κι ήρθανε κι απ´ τον Περαία
άντε μας τη σκάσανε ωραία
άντε μας αρχίσανε στα ζάρια
άντε δε μας 'φησανε πεντάρα

Άιντε ρίξανε γεμάτο ζάρι
άιντε δεν τους πήραμε χαμπάρι
άντε δεν τους πήραμε χαμπάρι
άντε ρίξανε γεμάτο ζάρι

έχω και 'γώ μερικές παραγγελιές

Σού 'χει λάχει του μπάτη
Κάτω στα λεμονάδικα του Παπάζογλου
Το παιχνίδι του Αμερικάνου του Σκαρβέλη
Η Βασιλισσα του Δούσια



www.youtube.com/watch?v=REG3RAp2UBs


Τίτλος: Απ: Παρτιτούρες για Μπαγλαμά Τζουρά 3χορδο μπουζούκι...
Αποστολή από: kmellos στις Οκτώβριος 23, 2010, 10:20:03 πμ
Παιδιά γειά χαρά! Είμαι στο φόρουμ αυτό πολύ καιρό αλλα μάλλον δεν θα με έχετε δει γιατί απ ότι έχω καταλάβει μπαίνετε μόνο σε αυτό το Θέμα!! Στο σάιτ αυτό υπάρχουν ακόμα πάρα πολλά θέματα!! ναι!! ειναι αλήθεια!! Είναι καλή φάση να ρίχνετε και μια ματιά σε άλλα θέματα

πχ στην ενότητα "Θέματα και στάση του site - Προτάσεις" Ένας απο τους διαχειρηστές του σάιτ αυτού ανοιξε το εξής θέμα: "πρόταση διάσπασης Tabs και συζητήσεων?" (http://www.diymusic.org/index.php?option=com_smf&Itemid=99999999&topic=4579.0)
Το οποίο αναφέρετε σε αυτό εδώ το θέμα!!! Ναι!!

Πολύ καλη δουλειά πάντως! ΕΙΣΤΕ ΩΡΑΙΟΙ !!


Τίτλος: Απ: Παρτιτούρες για Μπαγλαμά Τζουρά 3χορδο μπουζούκι...
Αποστολή από: Σωτήρης στις Οκτώβριος 23, 2010, 01:06:23 μμ
Έχει δίκιο ο kthulu για τη διάσπαση του θέματος σε ταμπλατούρες και σχόλια-προτάσεις. Έχει μαζευτεί πολύ και καλό υλικό αλλά είναι δίσχρηστο για τα νέα μέλη να εξυπηρετηθούν.


Mπράβο Αndar. Συνέχισε έτσι...


Τίτλος: Απ: Παρτιτούρες για Μπαγλαμά Τζουρά 3χορδο μπουζούκι...
Αποστολή από: lep στις Οκτώβριος 23, 2010, 07:22:53 μμ
re paidia xerete poies xordes einai kalhteres gia trixordo, oi re=11 la=14 re=22  h'  re=11 la=15 re=24 kai kamia kalh marka;;;


Τίτλος: Απ: Παρτιτούρες για Μπαγλαμά Τζουρά 3χορδο μπουζούκι...
Αποστολή από: Andar στις Οκτώβριος 23, 2010, 07:32:08 μμ
re paidia xerete poies xordes einai kalhteres gia trixordo, oi re=11 la=14 re=22  h'  re=11 la=15 re=24 kai kamia kalh marka;;;

exartate apo to mpouzouki, an valeis poly xontres borei na straboseis to bratso.
mila me ena kataskebasth kalytera,
pros to paron vale tis prodigy (kapos etsi grafete) h tis maestro pou einai standar
yparxoun kai kapoies alles kales pou kykloforoun se ena xartino stogylo paketo
alla de thimamai pos tis lene


Τίτλος: Απ: Παρτιτούρες για Μπαγλαμά Τζουρά 3χορδο μπουζούκι...
Αποστολή από: lep στις Οκτώβριος 23, 2010, 07:44:56 μμ
ebala tis mastro 11- 15- 24 kai mporw na pw oti einai arketa kales, ton exw ton fovo me to skevroma, exoyn poio dynato hxo eidika se taximi poy varas eleytheres la kai re. to boyzoyki poy exw einai zozef toy 67' alla tote ta doyleyane me 11- 14- 22 giayto twn exw ton fovo poy exw valei poio xontres.prodigi den exw xreishmopoihsei pote alla tha tis dokimasw.


Τίτλος: Απ: Παρτιτούρες για Μπαγλαμά Τζουρά 3χορδο μπουζούκι...
Αποστολή από: ΜΑΚΗΣ στις Οκτώβριος 24, 2010, 08:44:51 μμ
Αndar πολύ ωραίος
Καλώς ήρθες
Και σε ευχαριστούμε!!!

lep και εσένα φυσίκα
για την εισαγωγή!!!


Τίτλος: Απ: Παρτιτούρες για Μπαγλαμά Τζουρά 3χορδο μπουζούκι...
Αποστολή από: irini στις Οκτώβριος 28, 2010, 07:42:09 μμ
Παιδιά, έχουμε πουθενά το "Τούτοι οι μπάτσοι πού 'ρθαν τώρα";


Τίτλος: Απ: Παρτιτούρες για Μπαγλαμά Τζουρά 3χορδο μπουζούκι...
Αποστολή από: ΜΑΚΗΣ στις Οκτώβριος 28, 2010, 11:42:11 μμ
irini θα το βρεις στη σελίδα 17


Τίτλος: Απ: Παρτιτούρες για Μπαγλαμά Τζουρά 3χορδο μπουζούκι...
Αποστολή από: ΜΑΚΗΣ στις Οκτώβριος 30, 2010, 12:17:45 πμ
irini θα το βρεις στη σελίδα 17
επισης στην σελιδα 31


Τίτλος: Ήμουνα μάγκας μια φορά (Ήθελα να 'μουν Ηρακλής) (Μάρκος Βαμβακάρης, "Φράγκος")
Αποστολή από: *MadmaX* στις Οκτώβριος 30, 2010, 12:53:19 πμ
ΗΘΕΛΑ ΝΑ ‘ΜΟΥΝ ΗΡΑΚΛΗΣ
ΜΑΡΚΟΣ ΒΑΜΒΑΚΑΡΗΣ

Εισαγωγή
0-5-4-3-0---9-7-6-7—5-4-5-7-5-4-3-0-4-5-6-7-
0-----------------------------------------------
0-----------------------------------------------


0-5-4-3-0---9-7-6-7—5-4-5-7-5-4-3-0---0
0--------------------------------------0---0--
0-----------------------------------------------

Ή – μου – να μά-γκας μια φο - ρά με φλέ –βα ‘ρι – στο – κρά – τη
12—10----9—7---10---9--7----6-9---7----4--5----6----7-7-7-7-7
------------------------------------------------------------------
------------------------------------------------------------------

Τώ – ρα θα γί – νω δά – σκα- λος σαν το σο – φό Σω –κρά – τη
12---10-9--7---10—9----7----6---9--7—4----5---3---0----0-
-----------------------------------------------------------0-
-------------------------------------------------------------



www.youtube.com/watch?v=STigBgs5HFg


Τίτλος: Απ: Παρτιτούρες για Μπαγλαμά Τζουρά 3χορδο μπουζούκι...
Αποστολή από: ΜΑΚΗΣ στις Οκτώβριος 30, 2010, 11:33:58 μμ
μπράβο *MadmaX*
τέτοια ωραία ...
και εύκολα ...
για μας τους ατάλαντους!!!


Τίτλος: Όταν με βλέπεις και περνώ (Μάρκος Βαμβακάρης, "Φράγκος")
Αποστολή από: Vasilis Giannakes στις Νοέμβριος 01, 2010, 04:49:22 πμ
ΟΤΑΝ ΜΕ ΒΛΕΠΕΙΣ ΚΑΙ ΠΕΡΝΩ - ΜΑΡΚΟΣ ΒΑΜΒΑΚΑΡΗΣ


eisagogi

-0----------6-7-9--7-7-9--7-6---------
-5-4-5-7--8--------0------0---8-7-5-0-
-0-----------------0------0-----------


-0----------6-7-9--7-7-7-9--7-6---6-7-
-5-4-5-7--8--------0--------0---8-----
-0-----------------0--------0---------


-3-3-3--6-3-6-9--7-6-6-3--3-3-3-3-3-3-
-0------------------------0-----------
-3------------------------3-----------


-3-3-2-3--6-3-6-9--7-6----------0---0---
-0---------------------8-7--5-0---0---0-
-3--------------------------0-----------


-3-3-2-3--6-3-6-9--7-9-7-6--6-7-6-3--3-3-3-3-3-3-
-0-----------------------------------0-----------
-3-----------------------------------3-----------


-3-3-2-3--6-3-6-9--7-9-7-6--------------0---
-0-------------------------8-7--5-0-5-0-5---
-3------------------------------0-----------


logia

-7---6---6-7-9-6-7---7-7-9--7-6---------
-0-----8---------0----------0---8-7-5---
-0---------------0----------0-----------


-0---------6-7-9-6--7---7-7-9--7-6---6-7---
-5---5-7-8----------0----------0---8-------
-0------------------0----------0-----------


-3---3-3-6-3-6-9-7-6-6-3-3---3-3-3-3-3---
-0-----------------------0---------------
-0-----------------------3---------------


-3---3-2-3-6-3-6-9-7-6-3-2-----------------
-0-------------------------5---0-5-0-5-0---
-3-------------------------0---------------


-3---3-3-3--6-3-6-9--7-6-6-3--3-3-3-3-3-3---
-0----------------------------0-------------
-3----------------------------3-------------


-3---3-2-3--6-3-6-9--7-6-3-2--0-----------
-0----------------------------5-0-5-0-5-0-
-3----------------------------0-----------



www.youtube.com/watch?v=xZEIri2FyDM


Τίτλος: Ψεύτη ντουνιά (Απόστολος Χατζηχρήστος - Θανάσης Ευγενικός & Ευαγ. Μαρκοπούλου)
Αποστολή από: alterna στις Νοέμβριος 01, 2010, 01:21:11 μμ
Βάζω ένα τραγούδι για τους μερακλήδες που μου αρέσει πολύ..

και το αντίστοιχο link


www.youtube.com/watch?v=PQXw89SL_bQ


Ψεύτη ντουνιά      
Στίχοι: Απόστολος Χατζηχρήστος,
Μουσική: Απόστολος Χατζηχρήστος,


Εισαγωγή

9—9—10—12---10---12----14----12----10----9-----10----9----7----10-----9—9----9-----------------------------------
----------------------------------------------------------------------------------------------------------------------
---------------------------------------------------------------------------------------------------------------------


7---9---10--14---14--12--10----9---9---7---7--5---5----4--4---4----4---5---7---5--7—5---7--9---9----7---5----4---2
-----------------------------------------------------------------------------------------------------------------------
---------------------------------------------------------------------------------------------------------------------


2-----0-----2-------4------0-------------------------------------------------------------------------------------------
------------------------------------3-----2------3------2-------3-----2-----3------2-----------------------------------
-----------------------------------------------------------------------------------------------------------------------


Λόγια..

Μαράθηκε η καρδούλα μου……

7----9----10-----14----14----12-----10------9—9---9----7-9-10—14-14-14-14-12-10-7-9-10-9-7-9-------
------------------------------------------------------------------------------------------------------------------------
------------------------------------------------------------------------------------------------------------------------

μ`αυτή την αδικία…..

7----9----10-----14----14----12-----10------9—9---7---7----5----5—4---4----2----2---0---0------------------
------------------------------------------------------------------------------------------------------------3—3—2—2
------------------------------------------------------------------------------------------------------------------------

παλιοζωή, ψεύτη ντουνιά…..

5 -4--5--4----4----5----4-----2------9---9----9----7----5---4----2-----0----2----4----0----------------------------
---------------------------------------------------------------------------------------------------3----2-----0---------
------------------------------------------------------------------------------------------------------------------------

και παλιοκοινωνία….

2---4----2----0----------------------------9----10----12----14----14---12---10----9--------------------------------
---------------------3---2----0-----------------------------------------------------------------------------------------
------------------------------------------------------------------------------------------------------------------------


9—9---7---7----5----5—4---4----2----2---0---0-----------------------------------------------------------------------
-------------------------------------------------------------3—3—2—2-------------------------------------------------
------------------------------------------------------------------------------------------------------------------------



www.youtube.com/watch?v=Zy9fCkBL-hE


Τίτλος: Απ: Παρτιτούρες για Μπαγλαμά Τζουρά 3χορδο μπουζούκι...
Αποστολή από: philipas στις Νοέμβριος 01, 2010, 02:26:56 μμ
Πολυ Ωραιος!
Μπραβο!!! ;)


Τίτλος: Απ: Παρτιτούρες για Μπαγλαμά Τζουρά 3χορδο μπουζούκι...
Αποστολή από: lep στις Νοέμβριος 02, 2010, 02:08:13 πμ
ρε παιδια υπαρχει πουθενα το (οποιος οπφανεψε μικρος) η το (το φτωχομπουζουκο)


Τίτλος: Απ: Παρτιτούρες για Μπαγλαμά Τζουρά 3χορδο μπουζούκι...
Αποστολή από: lep στις Νοέμβριος 02, 2010, 09:29:19 μμ
Σε γελασανε.....

-7-12-7-8-5-7-3-5-2-3-2-3-5-8-7---7-12-7-8-5-7-3-5-2-3-3-2-3-2-0
----------------------------------------------------------------
----------------------------------------------------------------

R
-7-7-8-8-10--7-8-7-8-10-8-7--7-7-5-3-2-2-3-5-3-2-3-5-7
----------------------------------------------------------
----------------------------------------------------------

-7-7-8-8-10--7-8-7-8-10-8-7--7-7-5-3-2-2-3-5-3-2-3-2-0
----------------------------------------------------------
----------------------------------------------------------


Κατάλαβα την γνώμη σου και τι καπνό φουμάρεις
το δόλιο πορτοφόλι μου ζητάς να μου το πάρεις

Σε γελάσανε μην χάνεις τον καιρό σου  
Δεν σε σπούδασε καλά ο δάσκαλός σου   ] 2x
 
Δεν έμαθες τα δίχτυα σου μικρή μου να τ’ απλώνεις
Νομίζεις τον καθένανε μπορείς να τον γαντζώνεις
 
Σε γελάσανε...
 
Δεν τα λυπάμαι τα λεφτά ούτε και με πονάνε
Να ξέρεις μόνο τα χαλώ εκεί που μ’ αγαπάνε
 
Σε γελάσανε...


ΞΕΡΕΙ ΚΑΝΕΝΑΣ ΤΗΝ ΕΙΣΑΓΩΓΗ ΤΟΥ ΤΡΑΓΟΥΔΙΟΥ;


Τίτλος: Απ: Παρτιτούρες για Μπαγλαμά Τζουρά 3χορδο μπουζούκι...
Αποστολή από: ΜΑΚΗΣ στις Νοέμβριος 03, 2010, 12:17:05 πμ
ρε παιδια υπαρχει πουθενα το (οποιος οπφανεψε μικρος) η το (το φτωχομπουζουκο)
όχι lep μάλλον όχι
εκτός κι αν είναι με άλλο τίτλο


Τίτλος: Ο ισοβίτης (Μάρκος Βαμβακάρης, "Φράγκος")
Αποστολή από: alterna στις Νοέμβριος 03, 2010, 01:25:26 μμ
Ο Ισοβίτης

Στίχοι: Μάρκος Βαμβακάρης
Μουσική: Μάρκος Βαμβακάρης
Link: http://www.youtube.com/watch?v=cwLknhNnz48

Εισαγωγή

12---12----10---9-----7----12—12---12-----7---9----10—12----10—9—9---7----7---6----7
---------------------------------------------------------------------------------------------------------
----------------------------------------------------------------------------------------------------------


12---12----10---9-----7----12—12---12----7---9----12---10-----9-----7---5—4---3---4-----0-----0
--------------------------------------------------------------------------------------------------------0--
----------------------------------------------------------------------------------------------------------

Λόγια

Στη φυλακή με κλείσανε ισόβια για σένα

7----7----7----7---7---10----9----7-----6----7----4-----5----6----10----9----7-----6----7-------
----------------------------------------------------------------------------------------------------------
----------------------------------------------------------------------------------------------------------

τέτοιο μεγάλονε καημό επότισες εμένα

7----7----7----7---7---10----9----7-----6----7----4-----5----6----10----9----7-----6----7-------
----------------------------------------------------------------------------------------------------------
----------------------------------------------------------------------------------------------------------

εσύ 'σαι η αιτία του κακού για να με τυραννούνε

7—9---10---12—12---10---10---9----9----7----4------6----7-----10----9------6----7----------
----------------------------------------------------------------------------------------------------------
-----------------------------------------------------------------------------------------------------------

οι πίκρες και τα βάσανα να με στριφογυρνούνε

6----7----9---10---10---9----9----7---7-----5---4---3----4----5-----4-----3----4----0------0-----
-----------------------------------------------------------------------------------------------0-----------
-----------------------------------------------------------------------------------------------------------



www.youtube.com/watch?v=CxkxFCbjHiA


Τίτλος: Απ: Παρτιτούρες για Μπαγλαμά Τζουρά 3χορδο μπουζούκι...
Αποστολή από: Σωτήρης στις Νοέμβριος 05, 2010, 07:21:49 μμ
ΜΠΡΑΒΟ ΜΠΡΑΒΟ ΜΠΡΑΒΟ


Τίτλος: Απ: Παρτιτούρες για Μπαγλαμά Τζουρά 3χορδο μπουζούκι...
Αποστολή από: matzore στις Νοέμβριος 10, 2010, 05:40:55 πμ
ti egine re mages
apergia kanete?????? ;D :D


Τίτλος: Απ: Παρτιτούρες για Μπαγλαμά Τζουρά 3χορδο μπουζούκι...
Αποστολή από: ΜΑΚΗΣ στις Νοέμβριος 10, 2010, 10:17:19 μμ
Θα φταίει ο ψόφος εεε ο ψήφος!!! ;D


Τίτλος: Απ: Παρτιτούρες για Μπαγλαμά Τζουρά 3χορδο μπουζούκι...
Αποστολή από: marKiS στις Νοέμβριος 11, 2010, 06:51:14 μμ
Σγουρέ βασιλικέ μου και μαντζουράνα μου…..το τραγουδάκι εννοώ .μην πάει αλλού το μυαλό σας το ξέρει κανένας…..  ::)


Τίτλος: Απ: Παρτιτούρες για Μπαγλαμά Τζουρά 3χορδο μπουζούκι...
Αποστολή από: Βαγγέλης στις Νοέμβριος 11, 2010, 09:27:29 μμ
Συγχαρητήρια για το forum παιδιά. Σύντομα μπαίνω με τραγούδια του Μάρκου-Μπάτη!!!


Τίτλος: Ατσιγγάνα [2] (Γιώργος Μπάτης, "Αμπάτης")
Αποστολή από: Βαγγέλης στις Νοέμβριος 11, 2010, 11:24:33 μμ
η ατσιγγανα
5 5 5 5 6 4 5 5 5/555564555/64332--55/64332-----/----2--55/
- - - - - - -----/-----------/------43--/------4333/3434-43-/
---------------/------------/----------/----------/---------/

----2------/55556455/55556455/64332--5/23232----/
3434-4333/---------/----------/------43-/------433/
----------/---------/-/--------/----------/---------/

--2-2--55/--2-2----/
34-4-43--/34-4-4333/
----------/----------/



www.youtube.com/watch?v=l2ALJlYygb0


Τίτλος: Οι φωνογραφιτζήδες [2] (Γιώργος Μπάτης, "Αμπάτης")
Αποστολή από: Βαγγέλης στις Νοέμβριος 11, 2010, 11:43:25 μμ
οι φωνογραφητζηδεσ

---------87532-2357810------87532-232323
355555--------5--------355555-----5-------δυο φορεσ
--------------------------------------------
373732-2357810373732-233373732-2357810373732-233
------ 5---------------5----------5---------------5--------------------
------------------------------------------------------------



www.youtube.com/watch?v=jxEyOfZ7N84


Τίτλος: Απ: Παρτιτούρες για Μπαγλαμά Τζουρά 3χορδο μπουζούκι...
Αποστολή από: philipas στις Νοέμβριος 12, 2010, 08:43:51 πμ
Καλημερα Βαγγελη !!!Με το δεξι μπηκες!!!!
Καλη συνεχεια!


Τίτλος: Απ: Παρτιτούρες για Μπαγλαμά Τζουρά 3χορδο μπουζούκι...
Αποστολή από: Pavlos Pag στις Νοέμβριος 13, 2010, 11:34:02 μμ
Καλησπέρα σε όλους, είμαι κι εγώ ένας αυτοδίδακτος στο τρίχορδο μπουζούκι και μ' αρέσει πολύ η παρέα σας. Ελπίζω να με καλοδεχτείτε και να τα λέμε.


Τίτλος: Απ: Παρτιτούρες για Μπαγλαμά Τζουρά 3χορδο μπουζούκι...
Αποστολή από: *MadmaX* στις Νοέμβριος 14, 2010, 01:53:09 πμ
Όλοι οι καλοί χωράνε:-)


Τίτλος: Έχε γεια Παναγιά (Παραδοσιακό Πόλης - Δόμνα Σαμίου)
Αποστολή από: Pavlos Pag στις Νοέμβριος 14, 2010, 11:38:02 πμ
      Να  προσθέσω  κι  εγώ  ένα  λιθαράκι  στο  πολύ  πετυχημένο  έργο  σας.
       Θα  βάλω  για  αρχή  ένα  παραδοσιακό  Μικρασιάτικο  χασαποσέρβικκο  
        
       ΕΧΕ  ΓΙΑ  ΠΑΝΑΓΙΑ  


INTRO

{1η  12 -10-12-- --9- - - - - -  --9-10-9-10-12-12-13-14-15-13-15-13-12-10-9-10- - - - - - - - - - -
 2η - - - - - - - - - - - -11-10 - - - - - - - - - - - - - - - - - - - - - - - - - - - - - - - - - -  -- -11-10- - - -10-
 3η - - - - - - - -- - - - - - - - - - - - - - - - - - - - - - - - - - - - - - - - - - - - - - - - - - - - - - - - 12- - - - - -- }  Χ2


COUPLE

1η- - - - - -9- 10-12- - -12- -13-13-12-10-12- - -12- - - 12-12-13-14-15- - - 13- - - 12- - -10- - -9- 9-9-9-9
2η 10-10- - - - - - - - - - - - - - - - - - - - - - - - - - - - - - - - - - - - - - - - - - - - - - -- - - - - - - - - - - - - - - - - - -
3η- - - - - - - - - - - - - - - - - - - - - - - - - - - - - - - - - - - - - - - - - - - - - - - - - - - - - - - - - - - - - - - - - - - - - -


1η- - - -9-10-12- - -9- - - 10-9-- - - - - - - - - - - - - - - - - -9- - -10- - -12-9-10- - - - - - - - - - - - - - - - -
2η 10- - - - - - - - - - - - - - - - - 11-10-8-8-8-8-8-8-10-11- - - - - - - - - - - - - - -11-10-10-10-10-10-10
3η- - - - - - - - - - - - - - - - - - - - - - - - -- - - - - - - - - - - - - - - - - - - - - - - - - - - - - - - - - - - - - - - - - -


1η- - -9-10-12- - -9- - -10-9- - - - - - - - - - - - - - - - - -  -9- - - 10- - -12-9-10- - - - - - - - - - - - - - - -
2η 10- - - - - - - - - - - - - - - -11-10-8-8-8-8-8-8-10-11- - - - - - - - - - - - - - -- 11-10---10- - - - - - -
3η- - - -- - - - - - - - - - - - - - - - - - - - - - - - - - - - -- - - - - - - - - - - - - - - - - - - - - - -12- - - - - - - --



REFREN
Το refren παίζει  όπως  το  intro  δύο  φόρες. Αν  κάποιος  εντοπίσει  λάθος
να  το  διορθώσει.  



https://www.youtube.com/watch?v=XCNaaMUF6K4


Τίτλος: Απ: Παρτιτούρες για Μπαγλαμά Τζουρά 3χορδο μπουζούκι...
Αποστολή από: ΜΑΚΗΣ στις Νοέμβριος 14, 2010, 02:52:55 μμ
Καλησπέρα και καλός ήρθες
Άντε περιμένουμε και κοτρόνες!!!
 :D :D :D


Τίτλος: Απ: Παρτιτούρες για Μπαγλαμά Τζουρά 3χορδο μπουζούκι...
Αποστολή από: Pavlos Pag στις Νοέμβριος 14, 2010, 06:28:59 μμ
     Φίλε  Μάκη  έχε  υπομονή και όλοι  μαζί  παρέα  μπορούμε  να  χτίσουμε  και  πυραμίδα  αν θέλουμε.
      Kαλή  καρδιά  να  υπάρχει.
     Υπάρχει  και  ελαφρολαϊκό  και  λαϊκό  ρεπερτόριο  αν  ενδιαφέρεστε.  
  
 


Τίτλος: Απ: Παρτιτούρες για Μπαγλαμά Τζουρά 3χορδο μπουζούκι...
Αποστολή από: ΜΑΚΗΣ στις Νοέμβριος 14, 2010, 08:14:12 μμ
Από υπομονή άλλο τίποτα Pavlos Pag
Αλλά και από ταλέντο επίσης…(τίποτα!!!)
Ότι έχεις καλό είναι, εμείς αν μπορούμε θα βγάλουμε
Με πολύ προσπάθεια… σαν να κτίζουμε πυραμίδες…


Τίτλος: Αγάπη που 'γινες δίκοπο μαχαίρι (Μαν. Χατζιδάκις/Μιχ. Κακογιάννης - Μ. Μερκούρη)
Αποστολή από: Pavlos Pag στις Νοέμβριος 15, 2010, 08:58:27 μμ
             Όταν  υπάρχει  μεράκι  έρχεται  και  το  ταλέντο Μάκη  χρειάζεται  όμως  λίγη
              δουλειά ,  και  όλα  θα γίνουν  ποιο  εύκολα. .  
    Πάρε  ένα  εύκολο  του  Τσιτσάνη.  Πολύ  απλά  γραμμένο .

             ΑΓΑΠΗ  ΠΟΥ  ‘ΓΙΝΕΣ  ΔΙΚΟΠΟ  ΜΑΧΑΙΡΙ

 INTRO

  [1η 10-12-10-910-12-10-9-10-12-10-910-12-14---10-12-10-9-10-12-10-9-10-12-10-9-7-7-7-7                  
   2η - - - - - - - - - - - - - - - - - - - - - - - - - - - - - - - - - - - - - - - - - - - - - - - - - - - - -      
   3η - - - - - - - - - - - - - - - - - - - - - - - - - - - - - - - - - - - - - - - - - - - - - - - - - - - - -  ] χ2

 COUPLE
   [1η- - -7- -9- -10- -9-7- - - - - - - - - -7-- - - - - - - - -
    2η  7 - - - - - - - - - - - - - -10-10-10- - -8- 7- -7- -7
    3η- - - - - - - - - - - - - - - - - - - - - - - - - - - - - - - - -]  χ2

     [1η- - - - - - - - - - - - - - -10- - - 9-7- - - - - - - - - - - -  -12-10-9- -9- - - 7-6 - - - 10-9-7- -7- -7
      2η 7- -8- -9- -10- - -10- - - - - - - - -10-8- - -8- - - - -8- - - - - - - - - - - - - - -7- - - - - - - - - -
      3η - - - - - - - - - - - - - - - - - - - - - - - - - - - - - - - - - - - - - - - - - - - - - - - - - - - - - - - - ]  χ2


Αυτό  είναι  μόνο,  κι  αν  κάποιος  γνωρίζει  το  Τρίτη  Πέμπτη  μακαρόνια  ας  το δώσει.  



https://www.youtube.com/watch?v=VtWd6M2ADuY


Τίτλος: Απ: Παρτιτούρες για Μπαγλαμά Τζουρά 3χορδο μπουζούκι...
Αποστολή από: ΜΑΚΗΣ στις Νοέμβριος 15, 2010, 11:05:43 μμ
Pavlos Pag ευχαριστώ πολύ
Πολύ καλό!!!
Για το δικό σου δες σελ. 3

Και προφανώς εννοείς
Χατζιδάκις Μάνος/Κακογιάννης Μιχάλης


Τίτλος: Απ: Παρτιτούρες για Μπαγλαμά Τζουρά 3χορδο μπουζούκι...
Αποστολή από: philipas στις Νοέμβριος 16, 2010, 11:21:08 πμ
Καλημερα
Μαλλον ο Παυλος θελει το οι φυλακές του Ωροπου
σελιδα 41


Τίτλος: Απ: Παρτιτούρες για Μπαγλαμά Τζουρά 3χορδο μπουζούκι...
Αποστολή από: Pavlos Pag στις Νοέμβριος 16, 2010, 06:10:50 μμ
       Γεια  σας  παλικάρια. Ευχαριστώ αλλά  δεν  είναι  κάποιο  απ’ αυτά.
       Αν  μπείτε  στο  YouTube  και  ζητήσετε  το  Τρίτη  Πέμπτη  μακαρόνια
       θ'  ακούσετε  για  ποιο  λέω.  Το  τραγουδάνε  ο  Χοντρονάκος  με τη  Μαριώ.
       Πάντως  φίλε  Φίλιππα  έχεις    δίκαιο,  ταιριάζουν  κάποιοι  στίχοι.  
       Δεν  νομίζω  πάντως  να  έχουν  κάποια  σχέση  αυτά  τα  δύο.            


Τίτλος: Απ: Παρτιτούρες για Μπαγλαμά Τζουρά 3χορδο μπουζούκι...
Αποστολή από: jkoulou στις Νοέμβριος 16, 2010, 08:33:19 μμ
Χαιρετώ όλους τους μάγκες!!!!

Φίλε Ρεμπέτη χάθηκες... 

Όποιος μπορεί ''Δεν θέλω τα ματάκια σου'' έχει ζητηθεί κι από άλλους...και ''Τα Μάνταλα''...

Ευχαριστώ!!!


Τίτλος: Απ: Παρτιτούρες για Μπαγλαμά Τζουρά 3χορδο μπουζούκι...
Αποστολή από: philipas στις Νοέμβριος 16, 2010, 09:39:21 μμ
      Γεια  σας  παλικάρια. Ευχαριστώ αλλά  δεν  είναι  κάποιο  απ’ αυτά.
       Αν  μπείτε  στο  YouTube  και  ζητήσετε  το  Τρίτη  Πέμπτη  μακαρόνια
       θ'  ακούσετε  για  ποιο  λέω.  Το  τραγουδάνε  ο  Χοντρονάκος  με τη  Μαριώ.
       Πάντως  φίλε  Φίλιππα  έχεις    δίκαιο,  ταιριάζουν  κάποιοι  στίχοι.  
       Δεν  νομίζω  πάντως  να  έχουν  κάποια  σχέση  αυτά  τα  δύο.            

 δικιο εχεις Παυλο
το καταλαβα μετα αλλα ηταν αργα !


Τίτλος: Απ: Παρτιτούρες για Μπαγλαμά Τζουρά 3χορδο μπουζούκι...
Αποστολή από: Panayotis στις Νοέμβριος 18, 2010, 09:17:10 πμ
Gia sas pedia ime kenurgeos edo bezo ligo trihordo bozuki apla tora mateno.Etela na rotiso an borite
na me voitisete psahno tabladures gia kati tragudia pu mu areset para poli i telio namoto na to bekso.
Signomi gia ta gramata ama ime ksenos i gia mena ine ligo diskolo na grapso elinika gramata.

An borite na mu dosite tabladures gia afta ta tragudia: "Karantinis-Ζειμπεκικο του Πειραιά" , "To agalma","Ladadika",
"Μια ζωή πληρώνω" ke "Gia su mana thesaloniki".

Evharisto para poli. :)


Τίτλος: Το άγαλμα [2] (Μ. Πλέσσας/Λ. Παπαδόπουλος - Γιάννης Πουλόπουλος)
Αποστολή από: Pavlos Pag στις Νοέμβριος 18, 2010, 05:36:15 μμ
                ΤΟ  ΑΓΑΛΜΑ  του  Πλέσσα  και  Λ  Παπαδόπουλου
   Όπου  (  ) είναι  ανταπόκριση.

INTRO

[1η -9-12-10- -10- -10- -10- -10- -9- - - -- 10- - 9- -9- -9- -9- -9- - - -
 2η- - - - - - - - - - - - - - - - - - - - - - - -12- - - - - - - - - - - - - - - - - - --
 3η- - - - - - - - - - - - - - - - - - - - - - - - - - - - - - - - - - - - - - - - - - - - -  

 1η 9-12-10-9- -9- -9- -9- -9- -7- - - - -9- -7- - - 7- -9- -7- -7- -9- -7                
 2η - - - - - - - - - - - - - - - - - - -- -10- -- - - - - - - - - - - - - - - - - - - -                
 3η- - - - - - - - - - - - - - - - - - - - - - - - - - - - - - - - - - - - - - - - - - - -]  χ 2          

                                     1η- - - - - - - - -
                                     2η-7- - - - - 7- -
                                     3η- - - 10- - --7

   
                                    COUPLE

[1η- -7- -5- -3- -2- -0- -0-2- - -2- 3-5- -3- - 2-(3-2-0-2-3-2)
 2η-7- - - - - - - - -- - - 3 - - - - - - - - - - - - - - - - - - - - - - -
 3η- - - - - - - - - - - - - - - - - - - - - - - - - - - - - - - - - - - - -]  χ2

1η 7-7-7- -6-7- - -10-9-7- - - - - - 9-7- - - -7-9 - -9 - -9 - -9-(2-3-5-7)
2η- - - - - - - - - - - - - - - -10- -10- - - - 10- - - - - - - - - - - - - - - - - -
3η- - - - - - - - - - - - - - - - - - - - - - - - - - - - - - - - - - - -- - - - - - - - -

1η 7-9-10- -7- - - - - - - -7- - 6- - - - - - - - - - - - - - - - - -(2-3-5-7)
2η- - - - - - - - - -10- -8-7- - - - -8-7-5-7-7-7-7-7-7-7-7-7- - - - -
3η- - - - - - - - - - - - - - - - - - - - - - - - - - - - - - - - - - - - -- - - - -

 
1η 7-7-7- -6-7- - -10-9-7- - - - - - 9-7- - - -7-9 - -9 - -9 - -9-(2-3-5-7)
2η- - - - - - - - - - - - - - - -10- -10- - - - 10- - - - - - - - - - - - - - - - - -
3η- - - - - - - - - - - - - - - - - - - - - - - - - - - - - - - - - - - -- - - - - - - - -

1η 7-9-10- -7- - - - - - - -7- - 6- - - - - - - - - - - - - - - - - -
2η- - - - - - - - - -10- -8-7- - - - -8-7-5-3-3-3-3-3-3-3-3-3
3η- - - - - - - - - - - - - - - - - - - - - - - - - - - - - - - - - - - - -

Είναι  πολύ  απλά  γραμμένο.  Καλή  επιτυχία.  



www.youtube.com/watch?v=vg_AY9Nx1b4


Τίτλος: Απ: Παρτιτούρες για Μπαγλαμά Τζουρά 3χορδο μπουζούκι...
Αποστολή από: Panayotis στις Νοέμβριος 19, 2010, 06:28:27 μμ
Evharisto poli "Pavlos Pag" gia to Tab: To Agalma....




An borite na mu dosite ke tabladures gia afta ta tragudia: "Karantinis-Ζειμπεκικο του Πειραιά" ,"Ladadika",
"Μια ζωή πληρώνω" ke "Gia su mana thesaloniki".


Τίτλος: Απ: Παρτιτούρες για Μπαγλαμά Τζουρά 3χορδο μπουζούκι...
Αποστολή από: Λάμπρος στις Νοέμβριος 23, 2010, 08:01:36 μμ
Γειά σας κι από μένα!

Καταρχήν συγχαρητήρια για την προσπάθεια που έχετε κάνει,όλοι σας!

Έχω αρχίσει σιγά σιγά να γρατζουνάω το 4χορδο μου (καθότι άσχετος :-\) και

θα ήθελα να παρακαλέσω όποιον έχει/ξέρει το τραγούδι "Ύμνος ευαισθητοποίησης" και μπορεί ας το ανεβάσει!

Βρίσκεται στον δίσκο του Δημήτρη Ζερβουδάκη 'σχετικά παράνομο'...

Εδώ και ένα link:

http://www.youtube.com/watch?v=Xtiytwrpj18



Τίτλος: Μάνα μου Ελλάς (Σταύρος Ξαρχάκος/Νίκος Γκάτσος - Νίκος Δημητράτος)
Αποστολή από: piro στις Νοέμβριος 24, 2010, 12:21:28 πμ
ΓΕΙΑ ΣΑΣ ΚΑΙ ΑΠΟ ΕΜΕΝΑ.. ΠΟΛΥ ΚΑΛΗ ΠΡΟΣΠΑΘΕΙΑ. ΕΛΠΙΖΩ ΝΑ ΒΟΗΘΗΣΩ ΚΑΙ ΕΓΩ.


ΜΑΝΑ ΜΟΥ ΕΛΛΑΣ

Εισαγωγή
--5-4------------------10-8--7-----7-8-10-12----5-4--------4-5-7-10-8-10-12-13-12-11-12
-------6-5-6-5-4-4------------10-----------------------6-5-6------------------------------
--------------------------------------------------------------------------------------------

--5-4------------------10-8--7-----7-8-10-12----5-4--------4-5-7-10-8-7-5----0--5----------
-------6-5-6-5-4-4------------10-----------------------6-5-6---------------------------------
----------------------------------------------------------------------------------------------


Στίχοι
----------------------------------------------------------------------------
--5-6-5--4-5-6-5--4--5--6--5--65465--5-6-5--4-5-6-5--4--5--6--5--65465--
----------------------------------------------------------------------------

----4-5-7--7--7-8-7-6-7-8-7---0-----4-5-7--7--7-8-7-5-7-8-7
--5-----------------------------------------------------------
--------------------------------------------------------------

--7-8-9-10--10--10-12-10-8-5-7---------7-8-10-12-12--12-12-10-8-7-5-0-5
-------------------------------------------------------------------------0-0
----------------------------------------------------------------------------



https://www.youtube.com/watch?v=4oLCjZEzKNU


Τίτλος: Απ: Παρτιτούρες για Μπαγλαμά Τζουρά 3χορδο μπουζούκι...
Αποστολή από: alterna στις Νοέμβριος 24, 2010, 06:00:56 μμ
Πολύ ρέχλα έπεσε μάγκες και χαλαρώσαμε..
Τι έγινε μας επηρέασε το ΔΝΤ?
Με τι συνάντηση που συζητήθηκε κάποια στιγμή τι έγινε?
Κάποια στιγμή εμφανίστηκε γκομενάκι και μερικοί την είδαν αλλιώς..Όσοι παρακολουθούν το forum
ξέρουν τι λέω..
Ψάχνω κιθαρίστα απο Θεσσαλονίκη για ντουέτο..


Τίτλος: Ιστορία μου (Γιώργος Μανισαλής/Κώστας Ψυχογιός - Ρίτα Σακελλαρίου)
Αποστολή από: Pavlos Pag στις Νοέμβριος 24, 2010, 06:26:25 μμ
Καλησπέρα  σε  όλους.  Θα  δώσω  και  ένα  ακόμη  κομμάτι  που  εμένα  μου  αρέσει  πάρα  πολύ.

ΙΣΤΟΡΙΑ  ΜΟΥ  ΑΜΑΡΤΙΑ  ΜΟΥ    Του  Γιώργου  Μανισαλή  και  Κώστα  Ψυχογιού.
   Μέσα   σε  (  )  είναι  ανταπόκριση. Το  έχω  πολύ  απλά  γραμμένο.  Καλή  επιτυχία.

   INTRO

1η-14-13-14-19-19-17-15-15-14-12-12-12-12-11-12-17-17-15-14-14-12-10-10-10
2η- - - - - - - - - - - - - - - - - - - - - - - - - - - - - - - - - - - - - - - - - - - - - - -  
3η- - - - - - - - - - - - - - - - - - - - - - - - - - - - - - - - - - - - - - - - - - - - - - -  


1η-10-9-10-15-15-14-12-12-10-9-9-10-12-13-15-14- - -14-13-15-14
2η- - - - - - - - - - - - - - - - - - - - - - - - - - - - - - - - - - - - - - -
3η- - - - - - - - - - - - - - - - - - - - - - - - - - - - - - - - - - - - -  -


1η-14-13-14-19-19-17-15-15-14-12-12-12-12-11-12-17-17-15-14-14-12-10-10-10
2η- - - - - - - - - - - - - - - - - - - - - - - - - - - - - - - - - - - - - - - - - - - - - - -
3η- - - - - - - - - - - - - - - - - - - - - - - - - - - - - - - - - - - - - - - - - - - - - - -


1η-10-9-10-15-15-14-12-12-10-9-9-7-6-7-9-7-7-7- - - - -7-7-7-7-
2η- - - - - - - - - - - - - - - - - - - - - - - - - - - - -7-7-7 - -
3η- - - - - - - - - - - - - - - - - - - - - - - - - - - - - - - - - - - - - -


   COUPLE

             1η-2-2-0-2 - - 2- - -0- - -0-2-3-3-2- -( 2-0-3-2)- -2-2-0-2- -2- - -0- -0-5-3-2- -(2-1-3-2)
             2η - - - - - - - -  -3- - - - - - - - - - - - - - - - - - - - - - - - -  - 3- - - - - - - - - - - - - -
             3η- - - - - - - - - - - - - - - - - - - - - - - - - - - - - - - - - - - - - - - - - - - - - - - - - - -

            1η-2-3-2-0-0- -0- - -0-0- -2- - - - - - - -- -2-2-2-3-3-3-3-3-3-6-6-6-6- - - -7-7-7- - - - - -7-7-7-7
            2η- - - - - - - - -   3- - - -  - 3-2-0(0-2-3-0)- - - - - - - - - - - - - - - - - 8-7- - -  --7-7-7-
            3η- - - - - - - - - - - - - - - - - - - - - - - - - - - - - - - - - - -- - -- - - - - - - - - - - - - - - - - - --


            1η -(2-2-2-3-3-3-3-3-3-6-6-6-6-- - - 7-7-7---------7-7-7-7
            2η- - - - - - - - - - - - - - - - - -8-7-- - - - -7-7-7--- - --
            3η- - - ----- - - --- - - - - - - - - - - - - - - - - - - - - - -)


                REFREN

            1η-7-9-10- - -9-7- -5-3-5- -3-2- - -0- -2-3-5-3-2- -(2-1-3-2)
            2η- - - - - - - - - - - - - - - -- - - - - - - - - - - - - - - - - - -
            3η- - - - - - - - - - - - - - - - - - - - - - - - - - - - - - - - - - -


   1η-7-9-10- - -9-7- -5-3-5- -3-2- - -0- -0- - -2-0- - - - - 2-3
   2η- - - - - - - - - - - - - - - - - - - - - - - - - - - - -3-2-0-3-3
             3η- - - - - - - - - - - - - - - - - - - - - - - - - - - - - - - - - -



https://www.youtube.com/watch?v=MUFx0eRvzEY


Τίτλος: Απ: Παρτιτούρες για Μπαγλαμά Τζουρά 3χορδο μπουζούκι...
Αποστολή από: jkoulou στις Νοέμβριος 24, 2010, 06:49:04 μμ
Σε ευχαριστούμε θερμά Παύλο!!!!!!!!!!!


Τίτλος: Απ: Παρτιτούρες για Μπαγλαμά Τζουρά 3χορδο μπουζούκι...
Αποστολή από: ΜΑΚΗΣ στις Νοέμβριος 24, 2010, 08:18:49 μμ
Πολύ ρέχλα έπεσε μάγκες και χαλαρώσαμε..
Τι έγινε μας επηρέασε το ΔΝΤ?
Με τι συνάντηση που συζητήθηκε κάποια στιγμή τι έγινε?
Κάποια στιγμή εμφανίστηκε γκομενάκι και μερικοί την είδαν αλλιώς..Όσοι παρακολουθούν το forum
ξέρουν τι λέω..
Ψάχνω κιθαρίστα απο Θεσσαλονίκη για ντουέτο..

Εγώ είμαι μέσα
Για τη συνάντηση εννοώ

Μπράβο Παύλο!!!


Τίτλος: Το χαρέμι στο χαμάμ (Ανέστης Δελιάς, "Αρτέμης")
Αποστολή από: vaggeli στις Νοέμβριος 25, 2010, 05:32:40 πμ
ΤΟ ΧΑΡΕΜΙ ΣΤΟ ΧΑΜΑΜ - ανεστης δελιας
(3)-0-0-0-(3)-0-0--0-3-2-1-0-(3)-0--0-3-5-1-1-(3)-0-0-3-2-1-0-(3)-0--7-5-7-3-1-(3)-0-0-3-2-1-0-(3)-0--7-7-3-5-1-(3)-0-0-3-2-1-0-(3)-0-7-5-7-3-1-(3)-0--0-3-2-1-0-(3)-0

3-5-7-7-7-3-5--5-3-7-3-5-2-3 x2

3-2-3-5-1-(3)-0-0-3-2-1-0-(3)-0 x2



https://www.youtube.com/watch?v=wP9UkcMFjrw




μπορεί κάποιος να κάνει

Μαύρη ζωή μικρούλα μου

http://www.youtube.com/watch?v=fmENVZp3c5Q


Τίτλος: Απ: Παρτιτούρες για Μπαγλαμά Τζουρά 3χορδο μπουζούκι...
Αποστολή από: Σωτήρης στις Νοέμβριος 25, 2010, 08:35:16 μμ
καταρχην ποσοι βολεύονται με θεσσ/νικη. τι λετε να κανονίσουμε για κυριακη? πως θα γινει να συννενοηθούμε?



μπραβο βαγγελη


Τίτλος: Απ: Παρτιτούρες για Μπαγλαμά Τζουρά 3χορδο μπουζούκι...
Αποστολή από: ΜΑΚΗΣ στις Νοέμβριος 25, 2010, 08:44:23 μμ
Θεσσαλονίκη και Κυριακή είναι ότι πρέπει
Για μένα βέβαια!!! ;D ;D ;D


Τίτλος: Συ μου χάραξες πορεία (Απόστολος Καλδάρας - Γιώτα Λυδία)
Αποστολή από: Pavlos Pag στις Νοέμβριος 25, 2010, 10:13:24 μμ
Καλησπέρα  παλικάρια .  χαίρουμε  πολύ  που  άρεσε  το τραγούδι
(ιστορία  μου  αμαρτία  μου )  που  έστειλα  χτες  κι  έτσι  σκέφτηκα  
να  στείλω  άλλο  ένα  καλό  (για  μένα  πάντα)  το
ΣΥ  ΜΟΥ  ΧΑΡΑΞΕΣ  ΠΟΡΕΙΑ  του  Απόστολου  Καλδάρα.



INTRO

1η-7-9-7-10-9-7-3-0-3-7- - - 0-2-0-3-2-0- - - - -2
2η- - - - - - - - - - - - - - - - - - - - - - - - -3-0-3-
3η- - - - - - - - - - - - - - - - - - - - - - - - - - - - -

1η-2-7-10-14-12-10-12-10-9-10-9-7-9-7-6-7-[10-9-8-7-6-5-4]
2η- - - - - - - - - - - - - - - - - - - - - - - - - - - - - -- - - - - -
3η- - - - - - - - - - - - - - - - - - - - - - - - - - - - - - - - - - -

1η-7-9-7-10-9-7-3-0-3-7- - - 0-2-0-3-2-0- - - - -2
2η- - - - - - - - - - - - - - - - - - - - - -- - -3-0-3-
3η- - - - - - - - - - - - - - - - - - - - - - - - - - - - -

1η-2-7-10-14-12-10-12-10-9-10-9-7-9-7-6-7- -6-7
2η- - - - - - - - - - - - - - - - - - - - - - - - - -  7-7
3η- - - - - - - - - - - - - - - - - - - - - - - - - -  9-7

COUPLE

1η-7-10-7-7- -7-10-14-14- - 14-10-7- -10-14- -15-14-12- - -
2η- - - - - - - - - - - - - - - - - - - - - - - - - - - - - - - - - - -
3η- - - - - - - - - - - - - - - - - - - - - - - - - - - - - - - - - - -

1η-12-14-15-15- -15-17-19-19- - 17-15-17-15- -14- - - -
2η- - - - - - - - - - - - - - - - - - - - - - - - - - - - - - - -
3η- - - - - - - - - - - - - - - - - - - - - - - - - - - - - - - -

1η-2-2-7-7- - 7-5-3-3- - 0-0-3- - 7-5- -3-2-2- - - - -0-0- - - - - - - - - - - - - - - -
2η- - - - - - - - - - - - - - - - - - - - - - - - - -  - 0-0- - - - -3-2-3- - - 2- - 0-0-0-0
3η- - - - - - - - - - - - - - - - - - - - - - - - - - - - - - - - - - - - - - - - - - - - - - - -

REFREN

1η-0-2-3,3,3,3,3,3,3- -6-7- -9-7- -2,2,2,2- -2,6,7,9,9,7,6,3,2,1,2- - - - - - - - - - - - -1-2
2η- - - - - - - - - - - - - - - - - - - - - - - - - - - - - - - - - - - - - -- -3-0-3- - 2- - 0 -2-2
3η- - - - - - - - - - - - - - - - - - - - - - - - - - - - - - - - - - - - - - - - - - - - - - - - -4-2

Όπου [     ]    παίζει  μόνο  στη  πρώτη  εισαγωγή.
Και  όπου  , , , παίζει  λίγο  ποιο  γρήγορα.  Καλή  επιτυχία..
  


https://www.youtube.com/watch?v=5TDg0b5Lr8Y


Τίτλος: Απ: Παρτιτούρες για Μπαγλαμά Τζουρά 3χορδο μπουζούκι...
Αποστολή από: DL στις Νοέμβριος 25, 2010, 11:27:04 μμ
ΦΙΛΕ ''silou'' ΠΑΡΕ ΤΟ ΖΕΙΜΠΕΚΙΚΟ ΤΗΣ ΕΥΔΟΚΙΑΣ ΠΟΥ ΖΗΤΗΣΕΣ ΠΙΟ ΠΑΝΩ


ΤΟ ΖΕΙΜΠΕΚΙΚΟ ΤΗΣ ΕΥΔΟΚΙΑΣ

παιζεται με την 1η χορδη

---0--5-3-5-3-5-3--0--5-3-5-----0----5-3-5-3-5-3-0--3----0

---0--5-3-5-3-5-3--0--5-3-5-----0----5-3-5-3-5-3-0--3----0

--0-5-3-2--0-5-3-2--0-5-3-2---0-2-3-5-7----

--0-5-3-2--0-5-3-2--0-5-3-2---0-3-0-0-0

--7-8-7-8-7-8-7----5-5-3-5-7***----

--7-8-7-8-7-8-7----5-5-10-8-7***--

--0-0--2-3-5-5-5-5-3-3-2-2---0--0-0

--0-0--2-3-5-5-5-5-3-3-2-2---0--0-0

---0-5-3-5-3-5-3-0--5-3-5----0-5-3-5-3-5-3-0---3---0

---0-5-3-5-3-5-3-0--5-3-5----0-5-3-5-3-5-3-0---3---0

καλησπερα,

αναμεσα στις 2 παρακατω γραμμες αλλα και μετα την δευτερη γραμμη υπαρχει κατι ακομα (πολυ γρηγορα και τα δυο) τα οποια δεν τα βρισκω

--0-0--2-3-5-5-5-5-3-3-2-2---0--0-0

--0-0--2-3-5-5-5-5-3-3-2-2---0--0-0

http://www.youtube.com/watch?v=d4HI3lxHH-A

μπορει να με βοηθησει κανεις;

ευχαριστω!


Τίτλος: Απ: Παρτιτούρες για Μπαγλαμά Τζουρά 3χορδο μπουζούκι...
Αποστολή από: Pavlos Pag στις Νοέμβριος 26, 2010, 10:13:41 μμ
Φίλε  DL  αν  είσαι  τριχορδίτης  παίξε  απλά  αυτό  που  βλέπεις κάτω.


1η-0-- - - - 0- - - - - - 0
2η- - 0- - 0- - -0- - -0
3η- - - -0- - - - - -0   

Δηλαδή  από  κάτω  προς  τα  πάνω  εναλλάξ και  τελειώνεις  κάτω  όπως  ακριβός  το  βλέπεις.


Τίτλος: Απ: Παρτιτούρες για Μπαγλαμά Τζουρά 3χορδο μπουζούκι...
Αποστολή από: χρυσοστομος στις Νοέμβριος 27, 2010, 02:17:23 μμ
μάγκες καλησπέρα,

παρακολουθώ το φόρουμ αρκετό καιρό και πρέπει να πω
ότι αξίζουν συγχαρητήρια σε ολους για την προσπάθεια

είμαι σχετίκά καινούργιος στα τρίχορδα και με έχετε βοηθήσει

συνεχίστε δυναμικά και αν καταφέρω θα συνεισφέρω και γω

πάντα τέτοια και καλές πενιές


Τίτλος: Απ: Παρτιτούρες για Μπαγλαμά Τζουρά 3χορδο μπουζούκι...
Αποστολή από: nikkortis στις Νοέμβριος 27, 2010, 09:43:23 μμ
δυστυχως εγω δεν θα ειμαι αυτη την Κυριακη στην Θεσσαλονικη αν και μενω Θεσσαλονικη!


Τίτλος: Απ: Παρτιτούρες για Μπαγλαμά Τζουρά 3χορδο μπουζούκι...
Αποστολή από: Steve da Greek στις Νοέμβριος 28, 2010, 06:30:27 πμ
Opoios kserei to "San apokliros girizw" tou megalou Tsitsani ton parakalw na to anevasei gia mas tous Ellines pou zoume sto ekswteriko kai exoume stirigma to mpouzouki.

http://www.youtube.com/watch?v=KHIdwW2lLV0


Τίτλος: Απ: Παρτιτούρες για Μπαγλαμά Τζουρά 3χορδο μπουζούκι...
Αποστολή από: hristos στις Νοέμβριος 28, 2010, 09:37:33 πμ
Φίλε Steve το τραγούδι που ζητάς υπάρχει ήδη, ψάξε πιο πίσω και θα το βρείς.


Τίτλος: Μη βροντοχτυπάς τις χάντρες (Μ. Λοΐζος/Λ. Παπαδόπουλος - Ελένη Ροδά)
Αποστολή από: ΜΑΚΗΣ στις Νοέμβριος 28, 2010, 03:53:23 μμ
ΤΟ ΠΛΑΣΤΟ ΤΟ ΠΑΣΑΠΟΡΤΙ
                              Μ. λοιζος
εισαγωγή
1)----4-5-5-4-5-7-8-7-8
2)5-6---------------------

1) ----4-5-5-4-5-8-7-6-7
2) 5-6-------------------

1)7/8/9/10-7-5-4-7-4-----------------5-4-----5-4
2)----------------------6-5-3-2-3-5-6----6-5-6-5

Το πλαστό                                μόρτη                        
1)4-5-7-4-4--------5-7-8-5-7-8-8-7
2)--------6-6-5-5------------------
Σαν την                                    σκληρή
1)7-8-10-9-10-13-12-10-8-10-12/12/12/12--
2)-----------------------------9/ 9/ 9/ 9--


                         Μην βροντοχτυπάς   τις   χάντρες
1)----4-5-7-8-9-10-13-12-13-12-10-13-12-13-12-10
2)5-6--------------------------------------------------------
  Η δουλειά
1)5-7-8-12-10-12-10-12-10-8
   Το γιαπί
1)7-8-10-7-5-4-7-4-4--
2)-----------------6-6-5-5

(Όλο ξανά, και κλίνει την δεύτερη φορά)
1)4-5-7-4-5----5-4
2)----------6-5-6-5



https://www.youtube.com/watch?v=aj8eWTcvD2A


Τίτλος: Απ: Παρτιτούρες για Μπαγλαμά Τζουρά 3χορδο μπουζούκι...
Αποστολή από: Pavlos Pag στις Νοέμβριος 28, 2010, 06:34:47 μμ
Μπράβο  φίλε  Μάκη  πολύ  καλό   


Τίτλος: Απ: Παρτιτούρες για Μπαγλαμά Τζουρά 3χορδο μπουζούκι...
Αποστολή από: Steve da Greek στις Νοέμβριος 29, 2010, 01:08:23 πμ
Se euxaristw Hristo gia tin pliroforia.Epsaksa kai to vrika  :D Den to 8imomoun oti eixe anevei paliotera.


Τίτλος: Απ: Παρτιτούρες για Μπαγλαμά Τζουρά 3χορδο μπουζούκι...
Αποστολή από: marKiS στις Νοέμβριος 29, 2010, 12:34:59 μμ
Μπράβο ΜΑΚΗ χίλια ευχαριστώ


Τίτλος: Η άμαξα μες στη βροχή (Α. Χατζηχρήστος/Χ. Βασιλειάδης - Α. Χατζηχρήστος)
Αποστολή από: Pavlos Pag στις Νοέμβριος 29, 2010, 05:12:09 μμ
Καλησπέρα  σε όλους  να  στύλω  ένα  ακόμη  
το  (Η  ΑΜΑΞΑ  ΜΕΣ  ΤΗ  ΒΡΟΧΗ)
του  Χατζηχρήστου.  


INTRO

1η{- - -- - - - - - - - - - - - - - - - - - - - -7- -6-7- -10- - 9,10,9,7,9,7- -7- - - -  
2η-7-8-9-10- - 9-10-9-10- - 7-8-10- - -- - - - - - - - - - - - - - - - - -10- 10,810,7} χ2  

1η-  9-10
2η-10-10   έτσι  κλείνει.
                                 

COUPLE

1η-- - - - - - - - - - - - - -  - - --- - - - - - - -
2η-10- -10-10-10-8-8-8-7- - -(10,9,8,7-7-8-10)

1η-7-7,7,7,7,7,7- - -(- - 7,9)-10-10-10-9-12-10-9- - -
2η- - - - - - - -  -10-(10- - -)- - - - - - - - - - - -  12

1η-9,9,9- - -10-9- - - - - - - - - - - - - -
2η- - - - -12- - - [12-10- -13- -12- -9-10]

1η-(- - - - - - - - - -- - - - - - - -  - -9)
2η-(10,9,10,12,13,12,10,9,10- -10,12-- )

1η-10-10-10-9-12-10-9- - - -9,9,9- - -10-9-- - -
2η- - - - - - - - - - - - - 12- - - - -12- - - - 12-10

1η-12-10-9- - - - - - - - - - - -(- - - - - -  - -8,9,10) -  9-10
2η-- - - - - - -12-10- - -8- - 7(10,9,10,11,12- - - - -) -10-10


Όπου , , ,παίζει  λίγο  ποιο  γρήγορα
 όπου  [  ]  παίζει  με  τρέμουλo
και  όπου  (  )  είναι  ανταπόκριση.  



https://www.youtube.com/watch?v=p4RDpcQJ2aw


Τίτλος: Απ: Παρτιτούρες για Μπαγλαμά Τζουρά 3χορδο μπουζούκι...
Αποστολή από: Panayotis στις Νοέμβριος 30, 2010, 01:33:14 μμ
Kalimera pedia.An borite na mu dosite avta ta dio tragudia.


http://www.youtube.com/watch?v=xzGInuw8y4s


http://www.youtube.com/watch?v=wGChkCUw1dM&feature=related

Evharisto. :)


Τίτλος: Απ: Παρτιτούρες για Μπαγλαμά Τζουρά 3χορδο μπουζούκι...
Αποστολή από: thodoris στις Δεκέμβριος 01, 2010, 08:38:58 πμ
   Γεια σας μαγκες!!!!Χειμαρος το θεμα μας στο Diymusic κ παρασυρει συνεχεια καινουργιο κοσμο βλεπω!Καιρο εχουμε να τα πουμε...εχει κανα 2μηνο που πουλησα τ'οργανακι κ μενω απραγος,αλλα μεσ τον μηνα παιρνω ΤΟ μπουζουκι.Τριχορδο εννοειται  ;) Μεχρι τοτε οποιος μπορεσει ας ανεβασει το "η φαντασια στην εξουσια" του Στελιου Βαμβακαρη http://www.youtube.com/watch?v=VEL57qkuDmQ&feature=related
 
  Υ.Γ.Νομιζω μεσα στις γιορτες ειναι μια καλη περιπτωση για να βρεθουμε στη Θεσσαλονικη


Τίτλος: Απ: Παρτιτούρες για Μπαγλαμά Τζουρά 3χορδο μπουζούκι...
Αποστολή από: Δημήτρης Μακρής στις Δεκέμβριος 01, 2010, 03:53:44 μμ
Γεια σας και από εμένα....!! είμαι καινούργιος στη φάση και θα ήθελα να ζητήσω αν είναι εύκολο να ανεβάσετε <<Το Μπαρμπεράκι>> του Γιώργου Μπάτη...!! Ευχαριστώ πολύ!


Τίτλος: Το μπαρμπεράκι (Γιώργος Μπάτης, "Αμπάτης")
Αποστολή από: Βαγγέλης στις Δεκέμβριος 02, 2010, 04:35:06 μμ
1η  ----------      4-  5---           5--        
2η  3-3-  6-   6------       6-  3
     ο ταν κα  τσω στη πο λυ θρο     να
   τηνκα   ρδιαμου ε    συ την   κο  βεισ

1η---------------5--------------
2η 3  3  6  6-------------6   3  3  3
   καιμουκοβεισ    τα       μα λια α   α
  με   μιαολογλυ   κια      μα τια  α  α

545787545--    545
               653                              
545787545                        
                653333



https://www.youtube.com/watch?v=kAxFJeaPJ0k


Τίτλος: Κάποτε ήμουνα κι εγώ (Μάρκος Βαμβακάρης, "Φράγκος")
Αποστολή από: Δημήτρης Μακρής στις Δεκέμβριος 02, 2010, 06:20:55 μμ
Μάρκος Βαμβακάρης- Κάποτε ήμουνα κα εγώ

Εισαγωγή
1η  : 12-8-12-10-7-10-8-5-8-7-3-7-5-2-5-3-0-3-2-0-2-3-5-7
1η  : 12-8-12-10-7-10-8-5-8-7-3-7-5-3-2-3-5-7-5-3-2-0- - - -
Λόγια
1η : 0-0- -7-7-8- - - - 7- - - - -7-8-11-14-12-11-8-7- - -  }2Χ
2η : - - - 8- - - - - 11- -8-11- - - - - - - - - - - - - - - - -   }2Χ

1η : 7- - - 7-8-8-7- - - - - - - - - - -7-8-11-8-7- - -7
2η : - -11- - - - - - -10-8-7-8-11- - - - - - - - - -11-

1η : 7- - - 7-8-8-7- - - - - - - - - - -7-8-7-- - - - - - - -
2η : - -11- - - - - - -10-8-7-8-11- - - - - - 10-8-7-5



https://www.youtube.com/watch?v=5WY7qkSvPic



Σε ευχαριστώ πολύ Βαγγέλη για το μπαρμπεράκι!


Τίτλος: Απ: Παρτιτούρες για Μπαγλαμά Τζουρά 3χορδο μπουζούκι...
Αποστολή από: ΜΑΚΗΣ στις Δεκέμβριος 02, 2010, 10:21:28 μμ
Μπράβο σε όλους παιδιά!!!
Πολύ καλή δουλειά
ευχαριστούμε


Τίτλος: Σπασμένο καράβι (Γιάννης Σπανός/Γιάννης Σκαρίμπας - Κώστας Καράλης)
Αποστολή από: Βαγγέλης στις Δεκέμβριος 04, 2010, 07:53:09 μμ
σπασμενο καραβι
ποιηση  γ.σκαριμπα
μουσικη γ.σπανου
σε κλιμακα σολ μινορε

1η        1717                                 1313                     810785
2η  17           17151315131513   13           12101210128


1η        1717                                   1313                   810785
2η  17            17151315131513   13           12101210128             5810

1η  3   5  5  3  5  5                  10  10  7  8  7  8  7  3  5  5      35
2η                           10   10                                             5  
   σπασμενοκαραβι     να    μαι    πε ρα  μακριαε  ε  ε  τσιναμαι

1η               10   10   8   10  10                    15   15   12   13   12   13   12   8   10   10 5810
2η 10    10                              15    15
     ναν  α     φρατοσ  ο   το  ποσκιη     α         κτηνε     κρι  κη    γυ   υ    ρω   ω   γυ ρω
    με    κου   φα   ρι  γυ  το   ο  και    με        πλω ρη    ε    κει   που ου   θα   α    γυ ρω

1η  8   7   5   5  3   5   5                 10   10   7   8   7    3   5   5
2η                                   10    10                                            5810
    
     ετσι    ναμαι  κα ρα βι     γκρε μι   σμε νο   ε    ε   ε    τσινα μαι

1η  3   3   5   5   3   5   5                 10   10   7   8   7   8   7   3   5   5
2η                                     10   10                                                
     σαμουδια  πε  θα με νη     και    σε  κουφιο  νερο    να α   α   κοιμαμαι            



https://www.youtube.com/watch?v=O6nLChp_lfI


Τίτλος: Μην περάσεις απ' τη γειτονιά μου (Κώστας Σκαρβέλης - Κώστας Ρούκουνας)
Αποστολή από: Βαγγέλης στις Δεκέμβριος 04, 2010, 09:17:35 μμ
τραβα βρε μαγκα και αλανι
κ.σκαρβελη
2 5 3 2[5] 3 3   2 5 3 2[5] 7 7    9 10 9 7 12 7 5 6 3 5 6 5 6 5 3 2[5] 2 3[5]
[3][5][5] 7 7 5 5 3 8 7
μηνπερασεισαπτηγειτονιαμου
μαγκαμησεξαναδωμπροσταμου
9     10     10     8     8     7      7      5     5     3    [3][3]3
ε     μα      θα    μεσ  το    πα    σα     λι    μα    νι
5     6       6      5     5      3      2     [5]    3     [5]
πα    γα    πασ   μια   μορ   τι      σα    βρα   λα    νι
12    12     3     5      7      3      5      8       7
τρα   βα   βρε    μα    γκα   και    α     λα     νι
12    12    7      5      7      3       2     2       [5]
τρα   βα    για   το     πα    σα     λι     μα     νι



https://www.youtube.com/watch?v=VWFipn0QTls


Τίτλος: Απ: Παρτιτούρες για Μπαγλαμά Τζουρά 3χορδο μπουζούκι...
Αποστολή από: nikosilluminati στις Δεκέμβριος 06, 2010, 01:06:46 πμ
Χιλια μπραβο ρε παιδια, χιλια μπραβο. Εχω ξεκινησει κανα μηνα 3 χορδο και με βοηθαει πολυ το θεμα.
Παρακληση εαν καποιος μπορει ας ανεβασει το Αλι Μπαμπα
http://www.youtube.com/watch?v=Iu0C6T05id4

Ευχαριστω παρα πολυ

Νικος


Τίτλος: Καμηλιέρικο (Γιώργος Μπάτης, "Αμπάτης")
Αποστολή από: Βαγγέλης στις Δεκέμβριος 06, 2010, 08:02:36 μμ
καμηλιερικο
γ.μπατησ   δρομοσ ραστ[απο ντο]

[5]32[5]32[5]32[3]55     [5]32[5]32[5]32[3][3][3]
[5]   3   [5]   3   [5]   3   [3]   5   5
γλεπω   τε   σσε  ροι  πα  ρε   α     α
[5]   3   [5]   3   [5]   3   [3]   [3]   [3]
κιο   λοι  α   πο   τον   πε  ραι   α     α
[5]32[5]32[5]32[3]55       [5]32[5]32[5]32[3][3][3]
7   5   7   5   7   5   7   5   5
κιεφουμερνανε   χα  σι  σι
με τηνφε  τι  νη την κριση
[5]   3   [5]   3   [5]   3   [3]   5   5
με   την  φε  τι  νη   την κρι  ση
[5]   3   [5]   3   [5]   3   [3]   [3]   [3]
ε     φουμερ  να  νε   χα   σι   σι
[5]32[5]32[5]32[3]55        [5]32[5]32[5]32[3][3][3]



https://www.youtube.com/watch?v=fWCCOM-p9Gw


Τίτλος: Η φαντασία στην εξουσία (Στέλιος Βαμβακάρης/Πάνος Ηλιόπουλος - Π. Σιδηρόπουλος)
Αποστολή από: thodoris στις Δεκέμβριος 08, 2010, 11:06:05 πμ
  Το πηρα ΤΟ μπουζουκακι,οποτε το βγαλα μονος..αν υπαρχουν λαθη διορθωστε με

 Η Φαντασια Στην Εξουσια

   Μουσικη : Στελιος Βαμβακαρης
   Στιχοι : Πανος Ηλιοπουλος

   Εισαγωγη :

 1 :-----3-2-0---3-2-0---3-2-0---7-7---
 2 :-3----------------------------------
 3 :-----------------------------0-0----

 1 :-----3-2-0---3-2-0------------------
 2 :-3--------------------3---5--3-1-0--

 2 :-3---1-0-5---5-1-7---5-3-8---7-5-3--5---3-1-0--0--1--0-1-3-0--0--0

   Στιχοι :

 1 :-3-2-3-2--0---3-2-3-2--0---3-2-3-2--0---8-7-6-7

 1 :-8-7-8-7--5---7-5-7-5--3---5-3-2-0--5-5-5---5-3-2-0--7

 1 :-2-3--2-0

 Οι υπογραμμισμενες ειναι τριηχα



https://www.youtube.com/watch?v=2O76bEIYHg8


Τίτλος: Απ: Παρτιτούρες για Μπαγλαμά Τζουρά 3χορδο μπουζούκι...
Αποστολή από: Pavlos Pag στις Δεκέμβριος 12, 2010, 07:27:43 μμ
Καλησπέρα  σε  όλους  τους  φίλους  του  forum.
Σκέφτηκα  λόγο  των  ημερών  να μ ξεφύγουμε  λίγο
από  τα κλασικά  τραγούδια  και  να  γράψω  κάτι
γι  αυτές  τις  γιορτινές  μέρες  που  έρχονται.  
Μόλις  τώρα  έβγαλα  κι  εγώ  τα  κάλαντα  και
σκέφτηκα  να    τα  δώσω  για  αυτούς  που  τα  θέλουν
 και  δεν  τα  έχουνε.  


ΚΑΛΗΝ  ΕΣΠΕΡΑΝ  ΑΡΧΟΝΤΕΣ    

1η-5-7-9-10- - 9-7-5- -3- -2- -7-5-3-2-0- - 0-2-3-5-7- - 5- - 7- -5     χ2

1η-2-3-5-7-7- - 5- - 3- - 2- - 7-5-3-2-0- - 0-2-3-5-7- -5- - 7- - 5       χ2




ΑΡΧΗ  ΜΗΝΙΑ  ΚΙ  ΑΡΧΗ  ΧΡΟΝΙΑ

1η-7-7-7-7-5-3-2-5-5-3-2-0    χ2


1η-2-3-5-7-5- - 5-10-8-7-503- - 2- - 5-5-3- - 2-0- - -0-2-3-0-0
2η- - - - - - - - - - - - - - - - - - - - - - - - - - -  - 3- - - - - - --


Τίτλος: Απ: Παρτιτούρες για Μπαγλαμά Τζουρά 3χορδο μπουζούκι...
Αποστολή από: Vasilis Giannakes στις Δεκέμβριος 13, 2010, 04:16:30 μμ
geia sas paidia,  psahno tou Markou to tragoudi

 Ο μαστούρας (Μάρκος Βαμβακάρης)

Σαν μαστουριάσω και γίνω
λειώμ' από τη μαστούρα,
ξεχν' όλα μου τα βάσανα
κι όλη μου τη σκοτούρα.

Με πίκρες και με βάσανα
με προίκισεν η φύση,
κι όλα περνούν και χάνονται
μόνο με το χασίσι.

Κι έτσι ησυχάζω και περνώ (δις)
κι ευφραίνω το κορμί μου
απ' τη μαστούρα την πολλή
που 'χω στη κεφαλή μου.

Εγώ μάγκας γεννήθηκα
και μάγκας θα πεθάνω,
και ας φυτρώσουν χασισιές
στον τάφο μ' από πάνω.


edo akoute:

http://www.youtube.com/watch?v=rk2p8nfkyXs







Τίτλος: Απ: Παρτιτούρες για Μπαγλαμά Τζουρά 3χορδο μπουζούκι...
Αποστολή από: johnnytrs στις Δεκέμβριος 14, 2010, 04:20:21 μμ
Καλησπέρα ... ειμαι νεος στο site και μου αρεσει πολυ αυτο που εχετε κατεφερει...εγω παιζω τζουρα κοντα 2 χρονια αυτοδιδακτος...ειμαι 17 χρονον...θα ηθελα αν καποιος ξερει τις νοτες η την ταμπλατουρα απο το τραγουδι μεγαλα λογια του νικου βερτη ...εγω με την σειρα μου θα προσθεσω καποια κομματια που ξερω σε μορφη ταμπλατουρας αρκετα γνωστα...συνεχιστε ετσι..! ;D


Τίτλος: Απ: Παρτιτούρες για Μπαγλαμά Τζουρά 3χορδο μπουζούκι...
Αποστολή από: philipas στις Δεκέμβριος 14, 2010, 06:31:33 μμ
Καλησπέρα ... ειμαι νεος στο site και μου αρεσει πολυ αυτο που εχετε κατεφερει...εγω παιζω τζουρα κοντα 2 χρονια αυτοδιδακτος...ειμαι 17 χρονον...θα ηθελα αν καποιος ξερει τις νοτες η την ταμπλατουρα απο το τραγουδι μεγαλα λογια του νικου βερτη ...εγω με την σειρα μου θα προσθεσω καποια κομματια που ξερω σε μορφη ταμπλατουρας αρκετα γνωστα...συνεχιστε ετσι..! ;D

ΒΕΡΤΗ?ΝΙΚΟΥ?
ΠΛΑΚΑ ΚΑΝΕΙΣ ?
ΚΑΙ ΜΕ ΤΖΟΥΡΑ!!!!!


Τίτλος: Απ: Παρτιτούρες για Μπαγλαμά Τζουρά 3χορδο μπουζούκι...
Αποστολή από: johnnytrs στις Δεκέμβριος 14, 2010, 09:27:53 μμ
την εισαγωγη την εβγαλα πανω κατω αλλα δεν ειμαι σιγουρος...δοκιμασε και πες μ αν βγαινει

1)------------5-7-8-5--5-7-8-10-10-8-10-12-10-8-7--7-8-7-5---5-7-5-3-2
2)----5-5-7-8----------------------------------------------------------

1)------------5-7-8-5-8-7-7-5-7-8-7-5--3-2-5-3
2)----5-5-7-8----------------------------------------------------------
 :)
με τζουρα! ;D


Τίτλος: Απ: Παρτιτούρες για Μπαγλαμά Τζουρά 3χορδο μπουζούκι...
Αποστολή από: Σωτήρης στις Δεκέμβριος 16, 2010, 12:14:47 πμ
μου φαίνεται μπαίνουμε σε επικύνδινα μονοπάτια....  Προτείνω να χωριστεί το topic σε ταμπλατούρες ρεμπέτικων  και ταμπλατούρες ελαφρολαικών το γρήγορότερο δυνατό πρωτού δημιουργηθεί τουλάχιστον χάος


Τίτλος: Απ: Παρτιτούρες για Μπαγλαμά Τζουρά 3χορδο μπουζούκι...
Αποστολή από: marKiS στις Δεκέμβριος 16, 2010, 09:00:02 πμ
Έχεις απόλυτο δίκιο. τα παιδιά που ζητάνε τέτοια τραγούδια… να ανοίξουν άλλη σελίδα


Τίτλος: Σαν μαγεμένο το μυαλό μου [2] (Δημήτρης Γκόγκος, "Μπαγιαντέρας")
Αποστολή από: Βαγγέλης στις Δεκέμβριος 16, 2010, 09:45:01 μμ
μεχεισ μαγεμενο       δ.γκογκου[μπαγιαντερα]
                             τρ.δ.γκογκοσ-μ.χιωτησ
                              δρομοσ  νιαβεντ  απο ρε
11  12  7  8  7  7  5  7  5  5  [8]  7  5  5  [8]
11  12  7  8  7  7  5  7  5  5  [8]  5  7  [8]  7
11  12  7  8  7  7  5  7  5  5  [8]  7  5  5  [8]  [7]  [7]  [8]  7  5  [7]  [5]  [[7]]  [5]
7   6   7   12   7   5   7   5   [8]   [7]   [5]   6   7   67[8][7][8][5]
σανμα γε με   νο  το  μυαλο μου φτε    ρου γι   ζει
η   κα  θε σκε ψη μουκο  ντασου  τρι   γυ     ρι  ζει
7   6   7   15   14   12   10   8   7   5   4   7   5   8   5
δενη   συ χα    ζω  κ    στον υ  πνοπουκοι μα μαι  ω  ω
8    8    8    7    5    5    [8]    [8]    [7]    7    [8]    [7]    [5]  [[7]][[8]][3][5][[7]][5]
ε    σε   να  πα  ντα]αρχοντο   που   λα    μου   θυ    μα     μαι



https://www.youtube.com/watch?v=w7L00C137Ng


Τίτλος: Απ: Παρτιτούρες για Μπαγλαμά Τζουρά 3χορδο μπουζούκι...
Αποστολή από: 45h64h54h4 στις Δεκέμβριος 16, 2010, 10:20:41 μμ
''Mπουζούκι μου διπλόχορδο'' - Βαμβακάρης,  σε {  } οι συγχορδίες και ( ) στη Λα όπως και τα παραπάνω δικά μου.

{0,0,0},0,4,1,4,1,0,1,0,1,(3),0,0,0,0,7,7,7,7,7,7,7,7,7
{0,0,0},0,4,1,4,1,0,1,0,1,(3),0,0,0,(0),0,(0),0,(0),0 x2 (Εισαγωγή)

5,5,4,5,7,8,7,10,8,7,5,4,5,{0,5,7},{0,5,7} Λόγια
5,5,4,5,7,8,7,10,8,7,5,4,1,0,0,0,0,0
0,1,0,(3),(2),(3),(2),0,1,5,4,1,1,0,0,0,0,0,0
0,1,0,(3),(2),(3),(2),0,1,5,4,1,1,0,0,(0),0,(0),0,{0,0,0,}
 

file, otan les sixoedies enois varame oles tc xordes patimena afta p ine mesa stn paren8esi??sory ala ime kenourgios


Τίτλος: Απ: Παρτιτούρες για Μπαγλαμά Τζουρά 3χορδο μπουζούκι...
Αποστολή από: ΜΑΚΗΣ στις Δεκέμβριος 16, 2010, 10:44:20 μμ
φίλε 45h64h54h4η απάντηση είναι ναι αλλά
για μια πιο εύκολη, ίσως,
ταμπλατουρα δες στην σελίδα 48




Τίτλος: Απ: Παρτιτούρες για Μπαγλαμά Τζουρά 3χορδο μπουζούκι...
Αποστολή από: philipas στις Δεκέμβριος 17, 2010, 12:13:13 μμ
μου φαίνεται μπαίνουμε σε επικύνδινα μονοπάτια....  Προτείνω να χωριστεί το topic σε ταμπλατούρες ρεμπέτικων  και ταμπλατούρες ελαφρολαικών το γρήγορότερο δυνατό πρωτού δημιουργηθεί τουλάχιστον χάος
Συμφωνο απολυτα!!!


Τίτλος: Απ: Παρτιτούρες για Μπαγλαμά Τζουρά 3χορδο μπουζούκι...
Αποστολή από: Pavlos Pag στις Δεκέμβριος 17, 2010, 07:16:12 μμ
Φίλοι  μου  κι  εγώ  αγαπάω  πολύ  το  ρεμπέτικο  τραγούδι.
Όταν  όμως  κάτσεις  να  παίξεις  σε  μια  παρέα  κι αρχίσεις
κατευθείαν  με  ρεμπέτικο,  στο  τέλος  θα  πρέπει  να  καταλήξεις
σε  πολύ  βαρύ  πρόγραμμα,  και  πιστεύω  πώς  δεν  θα  είναι
ευχάριστο  για  όλη  τη παρέα  σου.  Γι’  αυτό  πιστεύω
πως  δεν  είναι  κακό  στο  ρεπερτόριό  μας  να  υπάρχει
και  ελαυρολαϊκό  τραγούδι.  Συμφωνώ  να  δώσουν  όσοι  έχουν 
και  ελαφριά  κομμάτια  και  σε  όποιον  αρέσουν  δοκιμάζει  να  τα  βγάλει.
Αυτή  είναι  η  ταπεινή  μου  γνώμη.  Χωρίς  παρεξήγηση.



Τίτλος: Ο αραμπατζής (Μάρκος Βαμβακάρης, Φράγκος)
Αποστολή από: Βαγγέλης στις Δεκέμβριος 17, 2010, 09:06:06 μμ
ο μ.βαμβακαρησ εγραψε χρονομετρικοτατα τραγουδια-ειδικα χασαπικα.λεγεται οτι πριν τα παρουσιασει τα δοκιμαζε-χορευε ο ιδιοσ που αλωστε ηταν θαυμασιοσ χορευτησ προσαρμοζοντασ τα αναλογα
τα τσιλικα σου ταλογα
στιχοι μουσικη μ.βαμβακαρησ
[[7]][[8]][[11]][[12]][8][5]χ2
[5]232532[5][4]2
7811121512χ2
1214151719171517141512[12]12
9    10    10    10    7    9    10    12    10    13    12    10    9    13    9    10
τα  τσι   λι      κα    σουτα    λο    γα    λε    βε    ντηα  ρα   μπατζη   η     μου
9    10    7    9    10    13    10    10    7       9    10    12    10    13    9    10
τα   τσι   λι    κα σου    τα     λο   γα    λε    βε    ντα    ρα     μπατζη   η    μου
8     7    5    3    2    [5]     5    7    3    2    3    5    7    8    6    7
κα  θε   πρω  ι    που  θα     τα  δω  μου κα  βουντη  ζω  η     η    μου
8    7    5    3    2      [5]    5    7    3    2    3    5    7    5    3    [5]
κα  θε   πρω ι   που   θα     τα   δω μου  κα βουν τη  ζω  η    η     μου

παντα σε συλλογιζομαι
ντερβιση αμαξα μου
εισαι κουρναζοσ μαγκα μου
σε βαλα στην καρδια μου

παντα εσενα αγαπω και συ να με θυμασαι
γιατι για σε θα τρελαθω πρεπει να με λυπασαι

σε καρτερω καθε πρωι  λεβεντη να περασεισ
κουρναζε μου αραμπατζη και συ με ξεχασεισ



https://www.youtube.com/watch?v=oG1fb9E_8sU


Τίτλος: Απ: Παρτιτούρες για Μπαγλαμά Τζουρά 3χορδο μπουζούκι...
Αποστολή από: philipas στις Δεκέμβριος 18, 2010, 09:24:56 πμ
ο μ.βαμβακαρησ εγραψε χρονομετρικοτατα τραγουδια-ειδικα χασαπικα.λεγεται οτι πριν τα παρουσιασει τα δοκιμαζε-χορευε ο ιδιοσ που αλωστε ηταν θαυμασιοσ χορευτησ προσαρμοζοντασ τα αναλογα
τα τσιλικα σου ταλογα
στιχοι μουσικη μ.βαμβακαρησ
[[7]][[8]][[11]][[12]][8][5]χ2
[5]232532[5][4]2
7811121512χ2
1214151719171517141512[12]12
9    10    10    10    7    9    10    12    10    13    12    10    9    13    9    10
τα  τσι   λι      κα    σουτα    λο    γα    λε    βε    ντηα  ρα   μπατζη   η     μου
9    10    7    9    10    13    10    10    7       9    10    12    10    13    9    10
τα   τσι   λι    κα σου    τα     λο   γα    λε    βε    ντα    ρα     μπατζη   η    μου
8     7    5    3    2    [5]     5    7    3    2    3    5    7    8    6    7
κα  θε   πρω  ι    που  θα     τα  δω  μου κα  βουντη  ζω  η     η    μου
8    7    5    3    2      [5]    5    7    3    2    3    5    7    5    3    [5]
κα  θε   πρω ι   που   θα     τα   δω μου  κα βουν τη  ζω  η    η     μου

παντα σε συλλογιζομαι
ντερβιση αμαξα μου
εισαι κουρναζοσ μαγκα μου
σε βαλα στην καρδια μου

παντα εσενα αγαπω και συ να με θυμασαι
γιατι για σε θα τρελαθω πρεπει να με λυπασαι

σε καρτερω καθε πρωι  λεβεντη να περασεισ
κουρναζε μου αραμπατζη και συ με ξεχασεισ


Μπραβο φιλε

μηπως εχεις και κανενα Link να το ακουσουμε?


Τίτλος: Απ: Παρτιτούρες για Μπαγλαμά Τζουρά 3χορδο μπουζούκι...
Αποστολή από: Βαγγέλης στις Δεκέμβριος 18, 2010, 11:45:29 πμ
φιλε philipa δωσμου περισοτερα στοιχεια για αυτο που ζητασ


Τίτλος: Απ: Παρτιτούρες για Μπαγλαμά Τζουρά 3χορδο μπουζούκι...
Αποστολή από: philipas στις Δεκέμβριος 18, 2010, 12:06:21 μμ
φιλε philipa δωσμου περισοτερα στοιχεια για αυτο που ζητασ
Καλημερα Βαγγελη
για το τραγουδι που ανεβασες ρωτω αν υπαρχει καποιο Link στο youtube για να το ακουσω!


Τίτλος: Απ: Παρτιτούρες για Μπαγλαμά Τζουρά 3χορδο μπουζούκι...
Αποστολή από: Βαγγέλης στις Δεκέμβριος 18, 2010, 01:15:39 μμ
philipa   ψαξε ο αραμπατζησ στο you tub σε πρωτη εκτελεση απο τον μαρκο


Τίτλος: Απ: Παρτιτούρες για Μπαγλαμά Τζουρά 3χορδο μπουζούκι...
Αποστολή από: philipas στις Δεκέμβριος 18, 2010, 01:53:49 μμ
ΟΚ!!!EYXARISTΩ ;)


Τίτλος: Άδικα με κατακρίνουν (Μάρκος Βαμβακάρης, Φράγκος)
Αποστολή από: Βαγγέλης στις Δεκέμβριος 18, 2010, 04:27:05 μμ
ο μαρκοσ βαμβακαρησ εγραφε τραγουδια πανω σε δρομουσ [κλιμακεσ τησ δυτικησ μουσικησ τροπουσ τησ αρχαιασ ελληνικησ μουσικησ].τα περισσοτερα τραγουδια γραφονται σημερα πανω σε μια κλιμακα σε βαθμο που μουσικα οπωσ ειπε σε σχετικα προσφατη συνεντευξη του ο θαυμασιοσ μουσικοσ μ.καραντινησ δεν ξεχωριζουν

αδικα με κατακρινουν   χρονομετρικοτατο χασαπικο του μ.βαμβακαρη σε δρομουσ χιτζαζ-χιτζαζκιαρ-πειραιωτικο

ειμ αθωοσ τοφωναζω κ το διαλαλω
αδικα με κατακρινουν κ μελεν τρελο

κι αν σ αγαπησα κουκλι μου πωσ να σου το πω
σε λατρευω κι εχω παντα τον καλο σκοπο

εγκλημα δεν ειν η αγαπη ουτε κ ντροπη
οποισ αγαπαει μοναχα ξερει τι θα πει

ελα φωσ μου να κλεφτουμε μια και σ αγαπω
αστον κοσμο να φωναζει αστον τον κουτο

[12]12121612131613161312          χιτζαζ
457811875457[5]7[5]7                 χιτζαζσκιαρ
[12]12121612131613161312          χιτζαζ
45785745[6]4[5][0][5]457             χιτζαζ
8          8           8        6      7       7      7      4     4     5      4       5        6        7    4[5]47457  
ει       μα           θω       οσ    το      φω  να     ζω   και   το      δι      α      λα        λωπειραιωτικοσ

8       8      8      6        7       7       7       4       5      [6]       7      [6]      [5]          
  • [5]457
α      δι      κα     με      κα     τα      κρι     νουν   κ      με       λεν    τρε      λο

8       8       8        6       7       7       7     4       5       4        5        6         7           4[5]47457
α       δι       κα      με     κα      τα      κρι   νουν   κ     με       λεν    τρε       λο

8       8        8       6       7       7       7     4        4       5      [6]       7        [6]      [5]    
  • [5]
ει      μα       θω     οσ     το      φω     να    ζω     κ       το      δι       α         λα      λω


    
https://www.youtube.com/watch?v=2yvMvUDUKxI


Τίτλος: Απ: Παρτιτούρες για Μπαγλαμά Τζουρά 3χορδο μπουζούκι...
Αποστολή από: philipas στις Δεκέμβριος 18, 2010, 08:04:42 μμ
Χιλια συγχαρητηρια Βαγγελη
εχεις ανεβασει πολυ το επιπεδο και μαθαινουμε και καποια πραγματα παραπανω .
Μπραβο και παλι.


Τίτλος: Η κλωστηρού [1] (Μάρκος Βαμβακάρης, Φράγκος)
Αποστολή από: Βαγγέλης στις Δεκέμβριος 18, 2010, 09:12:42 μμ
η κλωστηρου μ.βαμβακαρη σε δρομο νιαβεντ απο ρε
676[8][5]676[8][5]67876787671187678χ2

7    6   7    8    11    8    7    6    7     8     [8]     [7]     8    7
πο   τε με  τα    κι    τρι  να  ντυ με   νη    σε      κοι     τα    ζω

[8]   [7]    [5]    [7]    [8]    6    7     8     6     7     8      [8]    [7]      8     7
το    λυ    γε      ρο     σου  το   κο    ρμι  κα   θου  με     κ      θαυ     μα     ζω

7      6       7      8      7      7     7    [8]    [7]    [5]     8    7
που  με     ρα     νυ     χτα   δε    βγαι νεισ   απ    το     νου μου

[8]   [7]     [5]    [7]    [8]    6    7    8    7    [8]     [7]    [8]     [5]
αχ    μαυ    ρο     μα    τα     μου  τσαχπι  να   κλω   στη    ρου    μου

ποτε με τα κιτρινα ντυμενη σε κοιταζω
το λυγερο σου το κορμι καθουμαι κ θαυμαζω
που μερα νυχτα δε βγαινεισ απ το νουμου   δισ1
αχ μαυροματα μου τσαχπινα κλωστηρου μου  δισ2

κοκινα σα βαλεισ αδερφουλα
πωσ ηθελα να σ εβρισκα μεροσ που ναχει ζουλα
μπλε οταν φορεσεισ πωσ μ αρεσεισ  δισ1
και την καρδια μουεχεισ δεσει    δισ2

επαναληψη ολου απο την αρχη

φιλε philipa [κ οποισ αλοσ θελει] ακου το θαυμασιο αυτο τραγουδι του μαρκου στο you tub με τον τιτλο η κλωστηρου κ  πεσ τη γνωμη σου αν [[παταει]] καλα μουσικα



https://www.youtube.com/watch?v=NXqFATjowyk


Τίτλος: Απ: Παρτιτούρες για Μπαγλαμά Τζουρά 3χορδο μπουζούκι...
Αποστολή από: Σωτήρης στις Δεκέμβριος 20, 2010, 08:59:19 μμ
Φίλοι  μου  κι  εγώ  αγαπάω  πολύ  το  ρεμπέτικο  τραγούδι.
Όταν  όμως  κάτσεις  να  παίξεις  σε  μια  παρέα  κι αρχίσεις
κατευθείαν  με  ρεμπέτικο,  στο  τέλος  θα  πρέπει  να  καταλήξεις
σε  πολύ  βαρύ  πρόγραμμα,  και  πιστεύω  πώς  δεν  θα  είναι
ευχάριστο  για  όλη  τη παρέα  σου.  Γι’  αυτό  πιστεύω
πως  δεν  είναι  κακό  στο  ρεπερτόριό  μας  να  υπάρχει
και  ελαυρολαϊκό  τραγούδι.  Συμφωνώ  να  δώσουν  όσοι  έχουν  
και  ελαφριά  κομμάτια  και  σε  όποιον  αρέσουν  δοκιμάζει  να  τα  βγάλει.
Αυτή  είναι  η  ταπεινή  μου  γνώμη.  Χωρίς  παρεξήγηση.


Φίλε παύλο δεν διαφωνώ με τα λεγόμενά σου. Απλά επειδή έχει μαζευτεί πολύ υλικό (και πολύ καλό υλικό που είναι πολύ δύσκολο να βρεθεί) και συνεχίζεται να μαζεύεται, για λόγους ταξινόμησης πρότεινα να χωριστεί το topic. Οπως και έγινε και χάρηκα ιδιαιτέρως.

ΜΠΡΑΒΟ ΒΑΓΓΕΛΗ! ΣΥΝΕΧΙΣΕ ΕΤΣΙ


Τίτλος: Απ: Παρτιτούρες για Μπαγλαμά Τζουρά 3χορδο μπουζούκι...
Αποστολή από: thodoris στις Δεκέμβριος 21, 2010, 05:20:47 πμ
 Νομιζω οτι θα ηταν πολυ περισσοτερο λειτουργικο να υπηρχε ενα παραλληλο με το δικο μας θεμα ,το οποιο να στην ουσια θα ηταν μια λιστα με τα τραγουδια που εχουν γραφτει,σε ποιες σελιδες βρισκονται (σε περιπτωση που εχουν ανεβει δυο φορες αλλα με διαφορετικο τροπο) και απο ποιον εχουν ανεβει.Ετσι κ αυτοι που θα θελουν να βρουν κατι θα το κανουν γρηγορα αλλα κ οσοι θελουν να ανεβασουν ενα τραγουδι θα μπορουν να ελεγχουν τι εχει ηδη γραφτει...Νομιζω οτι ειναι μια δουλεια που πρεπει απαραιτητα να γινει κ οσο πιο νωρις τοσο πιο ευκολο θα ειναι!Ελπιζω να συμφωνουν μαζι μου κ οι υπευθυνοι του φορουμ κ να πραξουν τα απαραιτητα!! :)


Τίτλος: Απ: Παρτιτούρες για Μπαγλαμά Τζουρά 3χορδο μπουζούκι...
Αποστολή από: antuan gk στις Δεκέμβριος 21, 2010, 09:03:51 πμ
παιδια καλησπερα,
εαν εχει βγαλει κανεις  'τα μπλουζ του αποχωρισμου' του Σιδηροπουλου στο μπουζουκι ας κανει τον κοπο να το ανεβασει.

http://www.youtube.com/watch?v=Hcgwsro2_a8
ευχαριστω


Τίτλος: Η κλωστηρού [2] (Μάρκος Βαμβακάρης, Φράγκος)
Αποστολή από: philipas στις Δεκέμβριος 21, 2010, 07:55:42 μμ
η κλωστηρου μ.βαμβακαρη σε δρομο νιαβεντ απο ρε
676[8][5]676[8][5]67876787671187678χ2

7    6   7    8    11    8    7    6    7     8     [8]     [7]     8    7
πο   τε με  τα    κι    τρι  να  ντυ με   νη    σε      κοι     τα    ζω

[8]   [7]    [5]    [7]    [8]    6    7     8     6     7     8      [8]    [7]      8     7
το    λυ    γε      ρο     σου  το   κο    ρμι  κα   θου  με     κ      θαυ     μα     ζω

7      6       7      8      7      7     7    [8]    [7]    [5]     8    7
που  με     ρα     νυ     χτα   δε    βγαι νεισ   απ    το     νου μου

[8]   [7]     [5]    [7]    [8]    6    7    8    7    [8]     [7]    [8]     [5]
αχ    μαυ    ρο     μα    τα     μου  τσαχπι  να   κλω   στη    ρου    μου

ποτε με τα κιτρινα ντυμενη σε κοιταζω
το λυγερο σου το κορμι καθουμαι κ θαυμαζω
που μερα νυχτα δε βγαινεισ απ το νουμου   δισ1
αχ μαυροματα μου τσαχπινα κλωστηρου μου  δισ2

κοκινα σα βαλεισ αδερφουλα
πωσ ηθελα να σ εβρισκα μεροσ που ναχει ζουλα
μπλε οταν φορεσεισ πωσ μ αρεσεισ  δισ1
και την καρδια μουεχεισ δεσει    δισ2

επαναληψη ολου απο την αρχη

φιλε philipa [κ οποισ αλοσ θελει] ακου το θαυμασιο αυτο τραγουδι του μαρκου στο you tub με τον τιτλο η κλωστηρου κ  πεσ τη γνωμη σου αν [[παταει]] καλα μουσικα


Καλησπερα φιλε Βαγγελη
εχω την εντυπωση πως η εισαγωγη παει καλυτερα καπως ετσι
676[8][5]676[8][5]6787678 77 την πρωτη φορα και την 2 καπως ετσι
676[8][5]676[8][5]678767 11 876 [8][7][5]


και νομιζω πως εδω παει καπως ετσι
[8]   [7]     [5]    [7]  [7] [7] [7]   [12]   [12]   [8]   [7]  [8] [5]
αχ    μαυ    ρο     μα    τα     μου  τσαχπι  να   κλω   στη    ρου    μου


περιμενω την γνωμη σου



https://www.youtube.com/watch?v=NXqFATjowyk


Τίτλος: Απ: Παρτιτούρες για Μπαγλαμά Τζουρά 3χορδο μπουζούκι...
Αποστολή από: Βαγγέλης στις Δεκέμβριος 21, 2010, 11:22:36 μμ
philipa ηδικη σου εκδοχη νομιζω οτι ειναι πιο σωστη.ευχαριστω που απαντησεσ. δουλευω τραγουδια του μαρκου κ μολισ ειμαι ετοιμοσ θα τα δωσω.


Τίτλος: Απ: Παρτιτούρες για Μπαγλαμά Τζουρά 3χορδο μπουζούκι...
Αποστολή από: philipas στις Δεκέμβριος 22, 2010, 08:53:23 πμ
philipa ηδικη σου εκδοχη νομιζω οτι ειναι πιο σωστη.ευχαριστω που απαντησεσ. δουλευω τραγουδια του μαρκου κ μολισ ειμαι ετοιμοσ θα τα δωσω.


Μη με ευχαριστεις ,πανω στη δικη σου δουλεια τα βρηκα δεν εχω φτασει ακομα το δικο σου επιπεδο
περιμενω με ανυπομονησια τα επομενα γιατι αυτα με δυσκολευουν λιγακι γιατι ειναι λιγο γρηγορα!


Τίτλος: Του Βοτανικού ο μάγκας (Γρ. Μπιθικώτσης/Λάκης Τσώλης - Γρηγόρης Μπιθικώτσης)
Αποστολή από: ελλη στις Δεκέμβριος 22, 2010, 01:02:24 μμ
ΤΟΥ ΒΟΤΑΝΙΚΟΥ Ο ΜΑΓΚΑΣ (απο Μπιθικώτση)

εισαγωγή
15-15-11-11-8-6-8-10-11-12-13-15-13-11-10-11-8-10-6-8-5-6 x2

Α.5-6-8-6-8-6-5-6-8-6-8-8  5-6-8-6-8-6-6-8-5-6-3   (3)-3-3x3

στίχοι
3-3-6-5-3-6-5-3-10-10-10
3-3-6-5-3-6-5-3-2-3
3-3-6-5-3-6-5-3-9-10-10
3-3-6-5-3-6-5-3-2-3

γέμισμα
3-3-5-6-5-3-5-6-5-3-2-3-1-3-5-6-8

Ρεφραιν
6-6-6-6-6-8-5-6-6x2
8-8-8-8-8-6-5-8-8
8-6-10-8-8-6-6-5-5-3-3  (3)-3-3x3

και συνεχίζει απο το Α.



https://www.youtube.com/watch?v=LrusUFzEtUI


Τίτλος: Απ: Παρτιτούρες για Μπαγλαμά Τζουρά 3χορδο μπουζούκι...
Αποστολή από: philipas στις Δεκέμβριος 22, 2010, 05:43:19 μμ
ΤΟΥ ΒΟΤΑΝΙΚΟΥ Ο ΜΑΓΚΑΣ (απο Μπιθικώτση)

εισαγωγή
15-15-11-11-8-6-8-10-11-12-13-15-13-11-10-11-8-10-6-8-5-6 x2

Α.5-6-8-6-8-6-5-6-8-6-8-8  5-6-8-6-8-6-6-8-5-6-3   (3)-3-3x3

στίχοι
3-3-6-5-3-6-5-3-10-10-10
3-3-6-5-3-6-5-3-2-3
3-3-6-5-3-6-5-3-9-10-10
3-3-6-5-3-6-5-3-2-3

γέμισμα
3-3-5-6-5-3-5-6-5-3-2-3-1-3-5-6-8

Ρεφραιν
6-6-6-6-6-8-5-6-6x2
8-8-8-8-8-6-5-8-8
8-6-10-8-8-6-6-5-5-3-3  (3)-3-3x3

και συνεχίζει απο το Α.


Μπραβο Ελλη
 Καλως ηρθες και καλη αρχη και συνεχεια να εχεις


Τίτλος: Απ: Παρτιτούρες για Μπαγλαμά Τζουρά 3χορδο μπουζούκι...
Αποστολή από: ΓΕΩΡΓΙΟΣ στις Δεκέμβριος 24, 2010, 01:14:51 μμ
ΚΑΛΗΜΕΡΑ . ΧΡΟΝΙΑ ΠΟΛΛΑ , ΚΑΛΑ ΧΡΙΣΤΟΥΓΕΝΝΑ ,ΚΑΙ ΕΥΤΥΧΙΣΜΕΝΟ ΤΟ ΚΑΙΝΟΥΡΓΙΟ ΕΤΟΣ ΜΕ ΥΓΕΙΑ
ΜΕ ΔΥΝΑΜΗ ,ΜΕ ΑΓΑΠΗ, ΚΑΙ ΕΙΡΗΝΗ.
ΟΠΟΙΟΣ ΞΕΡΕΙ ΚΑΙ ΕΧΕΙ ΧΡΟΝΟ ΑΝ ΜΠΟΡΕΙ ΝΑ ΑΝΕΒΑΣΕΙ ΤΟ ΤΡΑΓΟΥΔΙ
ΕΜΑΘΑ ΠΩΣ ΕΙΣΑΙ ΜΑΓΚΑΣ ΤΟΥ ΧΡΗΣΤΑΚΗ. ΕΥΧΑΡΙΣΤΩ ΚΑΙ ΧΡΟΝΙΑ ΠΟΛΛΑ



Τίτλος: Απ: Παρτιτούρες για Μπαγλαμά Τζουρά 3χορδο μπουζούκι...
Αποστολή από: matzore στις Δεκέμβριος 24, 2010, 08:02:48 μμ
ΧΡΟΝΙΑ ΠΟΛΛΑ , ΚΑΛΑ ΧΡΙΣΤΟΥΓΕΝΝΑ
kai kales penies


Τίτλος: Απ: Παρτιτούρες για Μπαγλαμά Τζουρά 3χορδο μπουζούκι...
Αποστολή από: *MadmaX* στις Δεκέμβριος 24, 2010, 09:58:30 μμ
Καλα Χριστούγεννα και καλές πενιές παιδιά! ;D


Τίτλος: Απ: Παρτιτούρες για Μπαγλαμά Τζουρά 3χορδο μπουζούκι...
Αποστολή από: Pavlos Pag στις Δεκέμβριος 26, 2010, 11:58:39 πμ
Χρόνια  πολλά  σε  όλη  τη  παρέα  και  καλή  Χρονιά  να  έχουμε
Με  υγεία  και  ευτυχία στα  σπίτια  όλου  του  κόσμου.   


Τίτλος: Απ: Παρτιτούρες για Μπαγλαμά Τζουρά 3χορδο μπουζούκι...
Αποστολή από: stamf στις Δεκέμβριος 26, 2010, 01:14:14 μμ
Paidia kalhspera. Prwta vhmata ka thelw voitheia mias kai eimai parallhla kai fantaros! Opoios mporei ap tous deksiotexnes na to kanei tha htan polu xrhismo na anevasei to ''apopse to mpuzouki mou''! na ste kala kai na glentate!


Τίτλος: Απ: Παρτιτούρες για Μπαγλαμά Τζουρά 3χορδο μπουζούκι...
Αποστολή από: saltadoros23 στις Ιανουάριος 02, 2011, 01:05:35 πμ
Μετά από 3-4 μήνες που μπαίνω και μαθαίνω τραγουδάκια, επιτέλους κατάφερα και να γραφτώ αφού υπήρχε κάποιο πρόβλημα με το μειλ μου και δεν γινόταν με τίποτα! Τέλος πάντων, τα κατάφερα  ;D

με μεγάλη χαρά λοιπών χαιρετώ όλα τα παιδιά και θέλω να σας ευχαριστήσω όλους όσοι έχετε ανεβάσει τραγούδια! Από εδώ παίρνω κουράγιο και συνεχίζω να μαθαίνω μπουζουκάκι και μπαγλαμά μόνος μου (δυστυχώς μένω εξωτερικό και δεν είναι εύκολο να βρω δάσκαλο). Συνεχίστε παιδιά, βοηθάτε πολύ κόσμο πιστεύω!

Να ζητήσω τον πόνο του πρεζάκια αν το ξέρει κάποιος καλά, το έχω βγάλει με το αφτί περίπου αλλά μερικά κομμάτια δεν τα καταφέρνω. Το δίχτυ από όσο θυμάμαι δεν έχει ανέβει, θα το ανεβάσω τις επόμενες μέρες.

Καλή χρονιά σε όλους


Τίτλος: Απ: Παρτιτούρες για Μπαγλαμά Τζουρά 3χορδο μπουζούκι...
Αποστολή από: gkoulx86 στις Ιανουάριος 02, 2011, 11:07:55 μμ
Χρονια Πολλα  και καλη χρονια σε ολους μας με  πολυ με υγεια και πολυ μπουζουκι! Ψαχνω να βρω μηνες τωρα το "Φτωχομπουζουκο" του  Χιωτη και δεν το εχω  ανακαλυψει ακομα....Θα μπορουσε καποιος φιλος να βαλει ενα χερακι ....   

Να ειμαστε ολοι καλα και μπραβο παιδια για την δουλεια αυτη !!!!!


Τίτλος: Απ: Παρτιτούρες για Μπαγλαμά Τζουρά 3χορδο μπουζούκι...
Αποστολή από: Σωτήρης στις Ιανουάριος 03, 2011, 03:36:00 πμ
Καλή χρονιά και να μη ξεχνάμε ποτέ:
 Τιμή σ αυτούς που κάναν τη ψυχή μας καλύτερη
 Θα θελα κι εγώ ν ανέβει ένα τραγουδάκι και φαντάζομαι και πολλοί άλλοι...
Όσο βαρούν τα σίδερα [youtube]http://www.youtube.com/watch?v=1iMQq1DIwmY[/youtube]


Τίτλος: Απ: Παρτιτούρες για Μπαγλαμά Τζουρά 3χορδο μπουζούκι...
Αποστολή από: nikkortis στις Ιανουάριος 03, 2011, 05:24:53 μμ
τραγουδαρα Σωτηρη!!! μακαρι να το ανεβασει καποιος και να το ανεβασει σωστα!


Τίτλος: Απ: Παρτιτούρες για Μπαγλαμά Τζουρά 3χορδο μπουζούκι...
Αποστολή από: saltadoros23 στις Ιανουάριος 08, 2011, 12:29:37 πμ
Παιδιά το δίχτυ, στίχοι Νίκος Γκάτσος, Μουσική Σταύρος Ξαρχάκος.


Εισαγωγή:

5-5-5-5--4-4-4-4--2-2-2-1-2-4-5-4-2-0----2-0----------------0-22222222-2-0---2---------
------------------------------------------------3-2-333333-3------------------3----2-1-3-2
-------------------------------------------------------------------------------------------

5-5-5-5--4-4-5-7---4-4-4-4---2-2-4-5---8-7-5-4--5-4-3---4-2-1------1-4-2--1--2
-----------------------------------------------------------------3-2-3--------2--2
------------------------------------------------------------------------------1--2

Λόγια:
καθε φορα...                                  μην περιμένεις...                         έχε τα μάτια σου
------2-0-------0-2-----------------5-4-5-4----------4-5-4--------------------------0-2--2-0---
2-2-2-----3-2-3----3-2---2-1-3-2-----------7--7-5-7-------7--5-5---2-2-2-3--3-3--3---------3-2
--------------------------------------------------------------------------------------------------
             γιατί μπροστά...             διχτυ    έχε τα μάτια..                                     γιατί μπροστά σου...   διχτυ
-----------1-2-4--5-7-9-7-5-4-2-5--4--------------------0-2--2-0   -------------1-2-4-5-7-9-7-5-4-5-4--2-
2-1-3-2--2------------------------------2-2-2-3--3-3--3----------3-2--2-1-3-2-2--------------------------
------------------------------------------------------------------------------------------------------------

Ρεφραιν:
κι αν κάποτε...                              κανείς δεν...                         μονάχος..
4-5-4-5-4-5-777--5-4--------------4-5-4-5-4-5-777--5-4-----------------0-2--2-0---2-
-----------------------7--7-6-8-7------------------------7--5---2-3-3--3----------3--
---------------------------------------------------------------------------------------

                κι αν είσαι τυχερός...
-------------1-2-4-5-7-9-7-5-9--4-4-----------0-2--2-0--------------
2-1-3-2---2-------------------------- 2-3-3--3----------3-2--2-1-3-2--
-----------------------------------------------------------------------

κι αν είσαι...         ....πάλι
--1-2-4-5-7--9-7-5-4-2---
2-------------------------
--------------------------

Και αν έχω και κανένα λαθάκι συχωράτε με, 5 μήνες το έχω το όργανο  ;D Καλά παιξίματα και ελπίζω να έβαλα και εγώ ένα λιθαράκι  8)


Τίτλος: Απ: Παρτιτούρες για Μπαγλαμά Τζουρά 3χορδο μπουζούκι...
Αποστολή από: χρηστος στις Ιανουάριος 08, 2011, 12:31:02 μμ
καλημερα και καλη χρονια σε ολους,
να πω ενα ευχαριστω σε ολους που ανεβασαν τραγουδια,πηρα ενα μπαγλαμαδακι για χριστουγενιατικο δωρο στον εαυτο μου ,να ξεκολησω απο το αγχος και το στρες της δουλειας και απλα το ερωτευτηκα.
Με εχετε βοηθησει πολλη ,δεν ξερω νοτες δεν ξερω τιποτα αλλα με κανατε να βγαλω 1-2 τραγουδακια με απο τελεσμα να με διωξει και η συζηγος απο το κρεβατι  γιατι ολη μερα καθομαι και το γρατζουναω προσπαθωντας να βγαλω τα τραγουδια που γραφετε :) και ευτηχως ,σταματησε και να μπουρμουραει :)
Θα ηθελα καποιος αν μπορει να ανεβασει το ΜΕ ΑΕΡΟΠΛΑΝΑ ΚΑΙ ΒΑΠΟΡΙΑ .ΜΠΕΛΛΟΥ
Σας ευχαριστω και υποσχομαι οτι σε κανα 5 μηνο να μπορω να βοηθησω και εγω.


Τίτλος: Απ: Παρτιτούρες για Μπαγλαμά Τζουρά 3χορδο μπουζούκι...
Αποστολή από: *MadmaX* στις Ιανουάριος 09, 2011, 11:29:09 μμ
Καλώς ήρθες Χρήστο. Αυτό που θα ήθελα να σου πω είναι ότι, ο μπαγλαμάς είναι κυρίως συνοδευτικό όργανο που παίζεται συνήθως με ακόρντα. Μελωδίες - ειδικά περίπλοκες - είναι δύσκολο να παίξεις. Θα ήταν προτιμώτερο να πάρεις έναν τρίχορδο τζουρά. Επειδή το μπαγλαμαδάκι είναι καινούριο, αν σου δίνεται δυνατότητα ανταλλαγής από το κατάστημα που τον αγόρασες, κάντο. Εναλλακτικά, πάρε ένα βιβλίο (μέθοδο) για μπαγλαμά και μάθε τα βασικά ακόρντα. Σε κανά εξάμηνο, θα συνοδεύεις τα πάντα...


Τίτλος: Απ: Παρτιτούρες για Μπαγλαμά Τζουρά 3χορδο μπουζούκι...
Αποστολή από: saltadoros23 στις Ιανουάριος 10, 2011, 12:38:11 πμ
Και εγώ Χρήστο σαν και εσένα ξεκίνησα. Ήμουνα επίσκεψη Θεσ/νίκη και όπως περπατούσαμε στο δρόμο βλέπω ένα μαγαζάκι με όργανα. Μπαίνω να ρωτήσω για μπαγλαμά γιατί το είχα καημό από μικρό παιδάκι αλλά δεν έκατσε ποτέ να μάθω. Με το που κατέβασε ο τύπος 3-4  και άρχισε να τους παίζει κόλλησα, από το να ρωτήσω και να το σκεφτώ τον πήρα μαζί.. Μετά από μερικούς μήνες πήγα πήρα και μπουζούκι και τώρα που θα κατέβω θα πάρω και τζουρά να είμαι κομπλέ! Το κάθε όργανο έχει τη χάρη του. Η αλήθεια είναι βέβαια ότι ο μπαγλαμάς είναι πιο περιορισμένος γιατί με τα μικρά διαστήματα δεν χωράνε τα δάχτυλα να παίξεις γρήγορα, αλλά έχει άλλη χάρη ο άτιμος! Αν είναι να έχεις μόνο ένα όργανο ίσως ο τζουράς να είναι το καλύτερο, αλλά εγώ θα έλεγα και τα τρία.


Τίτλος: Απ: Παρτιτούρες για Μπαγλαμά Τζουρά 3χορδο μπουζούκι...
Αποστολή από: thodoris στις Ιανουάριος 10, 2011, 02:02:52 πμ
       
 Δεν Ξερω Ποσο Σ' Αγαπω

    Μουσικη : Αποστολος Καλδαρας
    Στιχοι : Χρηστος Αργυροπουλος

  Εισαγωγη :
 1 :-3--2--0--3--2--0--3--2--5----3--2

 1 :-5--3--2--5--3--2--5--2--7----5--3----2--0

 1 :-3--2--0--3--2--0--3--2--5----3--2

 1 :----7--5--7-----7-----7--0---0---------0-------
 2 :-8-----------8-----7------------0--8------0---0

  Στιχοι :
 1 :-----12--14--15--14--12---11--14--12----------------10----9--8--7--5-
 2 :-12---------------------------------------9--10--12--------------------

  Ανταποκριση :
 1 :-5--7--4--7--5

  Στιχοι :
 1 :-----------12---11--------------------------
 2 :-10---13-----------------7---8--7--5--8--7-

  Ανταποκριση :
 1 :-------------5--7--8--7--5--------
 2 :-4--5--7--8-----------------8--10-

  Στιχοι :
 1 :-12--14--15--14--12---11--14--12----------------10----9--8--7--5-
 2 :---------------------------------------9--10--12--------------------

  Ανταποκριση :
 1 :-5--7--4--7--5

  Στιχοι :
 1 :------14---12---11----12--14--10--8--10--7--8---------------------0--0-
 2 :-10----------------------------------------------10---8--10--7--8-------

  Ανταποκριση :
 1 :-7--8---9--10
 2 :-8-10--11--12

  Στιχοι :
 1 :-10---10---10---7-------7---12---10---8-
 2 :---------------------8-----------------10-

  Ανταποκριση :
 1 :-8--7--------------7--8--10--8----------7-
 2 :-------10--9--10-----------------8--10----

  Στιχοι :
 1 :-12---12---------------8---14---12---11-
 2 :-------------13---10------------------12-

 Ανταποκριση :
 1 :-----11--12--14--15--12--14------12------10--
 2 :-12---------------------------15------13-------12--12

  Στιχοι :
 1 :-12--14--15--14--12---11--14--12----------------10----9--8--7--5-
 2 :---------------------------------------9--10--12--------------------

  Ανταποκριση :
 1 :-5--7--4--7--5

  Στιχοι :
 1 :------14---12---11----12--14--10--8--10--7--8---------------------0-
 2 :-10----------------------------------------------10---8--10--7--8----

  Κλεισιμο :
 1 :-12--10--8--7---------------
 2 :----------------10--8--7--5-

 οι κοκκινες παιζονται τρεμολο.


Τίτλος: Απ: Παρτιτούρες για Μπαγλαμά Τζουρά 3χορδο μπουζούκι...
Αποστολή από: χρηστος στις Ιανουάριος 10, 2011, 01:13:57 μμ
Και εγώ Χρήστο σαν και εσένα ξεκίνησα. Ήμουνα επίσκεψη Θεσ/νίκη και όπως περπατούσαμε στο δρόμο βλέπω ένα μαγαζάκι με όργανα. Μπαίνω να ρωτήσω για μπαγλαμά γιατί το είχα καημό από μικρό παιδάκι αλλά δεν έκατσε ποτέ να μάθω. Με το που κατέβασε ο τύπος 3-4  και άρχισε να τους παίζει κόλλησα, από το να ρωτήσω και να το σκεφτώ τον πήρα μαζί.. Μετά από μερικούς μήνες πήγα πήρα και μπουζούκι και τώρα που θα κατέβω θα πάρω και τζουρά να είμαι κομπλέ! Το κάθε όργανο έχει τη χάρη του. Η αλήθεια είναι βέβαια ότι ο μπαγλαμάς είναι πιο περιορισμένος γιατί με τα μικρά διαστήματα δεν χωράνε τα δάχτυλα να παίξεις γρήγορα, αλλά έχει άλλη χάρη ο άτιμος! Αν είναι να έχεις μόνο ένα όργανο ίσως ο τζουράς να είναι το καλύτερο, αλλά εγώ θα έλεγα και τα τρία.

κοιτα ,τζουρα εχει ενα φιλαρακι μου ,τον πηρα λιγο να δω πως παει ,,αλλα εχω ενα προβλημα ,,ειμαι τορναδορος και τα δαχτυλα μου πλεον ειναι σε μια θεση "τορνου":) , δεν ειναι ευλυγιστα,,
το μπαγλαμαδακι με βολευει πολλη στα δαχτυλα γιατι δεν εχω να κανω πολλα ανοιγματα στα δαχτυλα για να πατησω ενα ταστο ,,,ο τζουρας ειναι λιγουλακι μεγαλος (οι αποστασεις) για τα δαχτυλα μου ,,ειχα δοκιμασει και μπουζουκι ,,αλλα παλι αυτο το προβλημα ειχα ...τα δαχτυλα δεν ανοιγουν :)
αλλα ,θα δανειστω τον τζουρα ,να δω πως θα τα παω.Αφου το λετε ,κατι θα ξερετε πολλη παραπανω απο μενα


Τίτλος: Απ: Παρτιτούρες για Μπαγλαμά Τζουρά 3χορδο μπουζούκι...
Αποστολή από: χρηστος στις Ιανουάριος 10, 2011, 01:30:39 μμ
Καλώς ήρθες Χρήστο. Αυτό που θα ήθελα να σου πω είναι ότι, ο μπαγλαμάς είναι κυρίως συνοδευτικό όργανο που παίζεται συνήθως με ακόρντα. Μελωδίες - ειδικά περίπλοκες - είναι δύσκολο να παίξεις. Θα ήταν προτιμώτερο να πάρεις έναν τρίχορδο τζουρά. Επειδή το μπαγλαμαδάκι είναι καινούριο, αν σου δίνεται δυνατότητα ανταλλαγής από το κατάστημα που τον αγόρασες, κάντο. Εναλλακτικά, πάρε ένα βιβλίο (μέθοδο) για μπαγλαμά και μάθε τα βασικά ακόρντα. Σε κανά εξάμηνο, θα συνοδεύεις τα πάντα...

αυτο το πηρα ηδη ,,την επομενη μερα ,,αλλα ειμαι ανυπομονος..δεν μποριες να φανταστεις πως ενιωσα οταν ειδα εδω στο φορουμ ,το κανεις εδω δεν τραγουδα και το εβαλα κατω και επαιξα ,πως αισθανθηκα,,,,δεν περιγραφεται.


Τίτλος: Απ: Παρτιτούρες για Μπαγλαμά Τζουρά 3χορδο μπουζούκι...
Αποστολή από: ΜΑΚΗΣ στις Ιανουάριος 11, 2011, 09:04:20 μμ
Άντε μπράβο βρε παιδιά!!!
Βλέπω ξανά ταμπλατουρες!!! ;D
Να είστε καλά, παλιοί και νέοι!


Τίτλος: Απ: Παρτιτούρες για Μπαγλαμά Τζουρά 3χορδο μπουζούκι...
Αποστολή από: ps_giannic στις Ιανουάριος 13, 2011, 12:37:43 πμ
Γεια σας παιδια...
Μπορει να ανεβασει καποιος το ''γιατι καλε γειτονισσα'' του Ακη Πανου?
Ευχαριστω...


Τίτλος: Απ: Παρτιτούρες για Μπαγλαμά Τζουρά 3χορδο μπουζούκι...
Αποστολή από: koyrkoylakos antonios στις Ιανουάριος 13, 2011, 10:19:53 πμ
Παιδιά το δίχτυ, στίχοι Νίκος Γκάτσος, Μουσική Σταύρος Ξαρχάκος.


Εισαγωγή:

5-5-5-5--4-4-4-4--2-2-2-1-2-4-5-4-2-0----2-0----------------0-22222222-2-0---2---------
------------------------------------------------3-2-333333-3------------------3----2-1-3-2
-------------------------------------------------------------------------------------------

5-5-5-5--4-4-5-7---4-4-4-4---2-2-4-5---8-7-5-4--5-4-3---4-2-1------1-4-2--1--2
-----------------------------------------------------------------3-2-3--------2--2
------------------------------------------------------------------------------1--2

Λόγια:
καθε φορα...                                  μην περιμένεις...                         έχε τα μάτια σου
------2-0-------0-2-----------------5-4-5-4----------4-5-4--------------------------0-2--2-0---
2-2-2-----3-2-3----3-2---2-1-3-2-----------7--7-5-7-------7--5-5---2-2-2-3--3-3--3---------3-2
--------------------------------------------------------------------------------------------------
             γιατί μπροστά...             διχτυ    έχε τα μάτια..                                     γιατί μπροστά σου...   διχτυ
-----------1-2-4--5-7-9-7-5-4-2-5--4--------------------0-2--2-0   -------------1-2-4-5-7-9-7-5-4-5-4--2-
2-1-3-2--2------------------------------2-2-2-3--3-3--3----------3-2--2-1-3-2-2--------------------------
------------------------------------------------------------------------------------------------------------

Ρεφραιν:
κι αν κάποτε...                              κανείς δεν...                         μονάχος..
4-5-4-5-4-5-777--5-4--------------4-5-4-5-4-5-777--5-4-----------------0-2--2-0---2-
-----------------------7--7-6-8-7------------------------7--5---2-3-3--3----------3--
---------------------------------------------------------------------------------------

                κι αν είσαι τυχερός...
-------------1-2-4-5-7-9-7-5-9--4-4-----------0-2--2-0--------------
2-1-3-2---2-------------------------- 2-3-3--3----------3-2--2-1-3-2--
-----------------------------------------------------------------------

κι αν είσαι...         ....πάλι
--1-2-4-5-7--9-7-5-4-2---
2-------------------------
--------------------------

Και αν έχω και κανένα λαθάκι συχωράτε με, 5 μήνες το έχω το όργανο  ;D Καλά παιξίματα και ελπίζω να έβαλα και εγώ ένα λιθαράκι  8)
Χρόνια  πολλά  σε  όλη  τη  παρέα  και  καλή  Χρονιά  να  έχουμε
Με  υγεία  και  ευτυχία στα  σπίτια  όλου  του  κόσμου.   

8) 8) 8)


Τίτλος: Απ: Παρτιτούρες για Μπαγλαμά Τζουρά 3χορδο μπουζούκι...
Αποστολή από: Pavlos Pag στις Ιανουάριος 15, 2011, 05:17:06 μμ
Για  σας  παιδιά.  Να δώσω  το  ΜΟΝΟΠΑΤΙ  του  Γιώργου  Μουζάκη  και  Αλέκου  Σακελάριου
από  ΛΑ ΜΙΝΟΡΕ    

INTRO
1η-7-7-7-7-9-7-6-7-9-7-6-7-9-7-6-3- -2-3-5-3-2-3-5-3-2-3-5-3-2
2η- - - - - - - - - - - - - - - - - - - - - - - - - - - - - - - - - - - - -
3η- - - - - - - - - - - - - - - - - - - - - - - - - - - - - - - - - - - - -

1η-0- - - - - - -0- -3- -2- -0- - - - - - - -0- -2-2-2
2η- -3- -2- -3- - - - - - - - - -3- -2- -3- - - - - - - -
3η- - - - - - - - - - - - - - - - - - - - - - - - - - - - -

1η-7-7-7-7-9-7-6-7-9-7-6-7-9-7-6-3- -2-3-5-3-2-3-5-3-2-3-5-3-2
2η- - - - - - - - - - - - - - - - - - - - - - - - - - - - - - - - - - - - - -
3η- - - - - - - - - - - - - - - - - - - - - - - - - - - - - - - -- - - - - -

1η-0- - - - - - - -0- -3- -2- -0- - - - - - - - - -
2η- - -3- -2- -3- - - - - - - - - -3- -2- -0- - -0
3η-  - - - - - - - - - - - - - - - - - - - - -  - 2- -

COUPLE

1η-2-2-2-2- -2-2- -3-2- -0- - -0- 2- -2- -2[2,3,2,0- - - -  - - - - -0-2]
2η- - - - - - - - - - -  - - - -3- - - - - - - - [- - - - - 3,2,0- - 2-3- -- ]
3η- - - - - - - - - - - - - - - - - - - - - - - - - - - - - - - - - - - - -  - --

1η-2-2-2-2- -2-2- -2-2- -0-3- -2-2-0[0- - - 0-2-3-2-0- - - 0]
2η- - - - - - - - - - - - - -  - - - - - -[  -4- - - - - - - -  -4- - ]
3η- - - - - - - - - - - - - - - - - - - - - - - - - - - - -  - - - - - -

1η- - -0-2-3- -2-3- -6-7- -7-6- - 3-2-2-2[2,3,2,0- - - -  - - - - -0-2]
2η-4- - - - - - - - - - - - - - - - - - - - -  [- - - - - 3,2,0- - 2-3- -- ]
3η- - - - - - - - - - - - - - - - - - - - - - - - - - - - - - - - - - - - -  -

1η-2-6-7-9- -9-9- -7-6- -7-9- -10-10-9[9-10-11-12-11-10-9-10]
2η- - - - - - - - - - - - - - - - - - - - - - - - - - - - -  - - - - - - -
3η- - - - - - - - - - - - - - - - - - - - - - - - - - - - - - - - - - - -

1η-9-7-6-3- -2-3- -6-7- -7-6- -3-2-2-2[2,3,2,0- - - -  - - - - -0-2]
2η- - - - - - - - - - - - - - - - - - - - - - [- - - - - 3,2,0- - 2-3- -- ]
3η- - - - - - - - - - - - - - - - - - - - - - - - - - - - - - - - - - - - -

1η-2-6-7-9- -9-9- -7-6-- -7-9- -10-9- -7- - - -6-7-6-7
2η- - - - - - - - - - - - - - - - - - - - -  - -7-8- - - -7-7
3η- - - - - - - - - - - - - - - - - - - - - - - - - - - - - - - 


Όπου  [ ] είναι  ανταπόκριση  και  όπου  , , , ,παίζει  ποιο  γρήγορα.
Καλή  επιτυχία.    


Τίτλος: Απ: Παρτιτούρες για Μπαγλαμά Τζουρά 3χορδο μπουζούκι...
Αποστολή από: Μιλτιάδης στις Ιανουάριος 15, 2011, 11:51:03 μμ
χίλια μπράβο. εκπληκτικά όλα τα τραγούδια. Με το "Ερηνακι" όμως από Ρούκουνα κανείς μια βοήθεια; έχουμε κι έναν νταλγκά να ηρεμίσουμε


Τίτλος: Απ: Παρτιτούρες για Μπαγλαμά Τζουρά 3χορδο μπουζούκι...
Αποστολή από: tomalas στις Ιανουάριος 16, 2011, 07:58:21 μμ
παιδιά χαιρετώ και εγώ με τη σειρά μου αυτό το φανταστικό forum . ειλικρινα ειναι αυτο που εψαχνα....αλλα θελω να ρωτησω καποια πραγματα γιατι λογικα οι περισσοτεροι θα ξερετε....
εχει πεσει στα χερια μου ενα μπουζουκι 4χορδο ενος φιλου και εχω ξεκινησει να το 'γρατζουναω'.

θελω να ρωτησω εαν μπορει καποιος να μου δωσει μια καθοδηγηση πως να κινηθω με το μπουζουκι.
εχω ψαξει και εχω βρει ενα βιβλιο με πρακτικες εξασκησης,, διπλοπενιες κτλ για να ανοιξξουν τα δακτυλα αλλα θεωρω πως ειναι αρκετα βαρετο (αν και κατανοω οτι ειναι πολυ σημαντικο)
για το λογω αυτο θελω εαν μπορει καποιος να μου πει καποια τραγουδια (τα οποια ειναι στο forum και εχουν ταμπλατουρες) που ειναι σχετικα ευκολα για να ξεκινησω να παιζω.καταλαβαινω οτι για να φτασω να παιζω σε  ενα ικανοποιητικο επιπεδο θελει πολυ καιρο αλλα θελω να μαθω τεχνικες (εαν υπαρχουν) για να λυνονται τα δακτυλα πιο ευκολα!!!

θελω επισης να μου πειτε μια  σειρα που πρεπει να ακολουθησω για να μπορω να παιζω μερικα τραγουδια γιατι δεν μπορω να διαθεσω χρηματα για να κανω μαθηματα!!!

ολες οι προτασεις ειναι δεκτες..

ευχαριστω εκ των προτερων!!!


Τίτλος: Απ: Παρτιτούρες για Μπαγλαμά Τζουρά 3χορδο μπουζούκι...
Αποστολή από: Μιλτιάδης στις Ιανουάριος 16, 2011, 08:35:55 μμ
Αν και δεν είμαι κανας δεξιοτέχνης αλλά νομίζω ότι ο καλύτερος τρόπος να ξεκινήσεις και ειδικά σε τετράχορδο είναι με δρόμους. Έτσι θα εξασκήσεις και δάχτυλα και αυτιά και μετά θα είναι πολύ πιο εύκολο. Εγώ ξεκίνησα με δάσκαλο που με έβαλε στις παρτιτούρες. τώρα έπιασα κι εγώ να μάθω δρόμους γιατι δεν γίνεται αλλιώς. Σε τετράχορδο νομίζω βοηθάει περισσότερο για να μάθεις από αρχή να παίζεις και στις τέσσερις χορδές, κλίμακες αρχικά και μετά τραγούδια.


Τίτλος: Απ: Παρτιτούρες για Μπαγλαμά Τζουρά 3χορδο μπουζούκι...
Αποστολή από: ΜΑΚΗΣ στις Ιανουάριος 17, 2011, 08:11:40 μμ
Φίλε,  tomalas, δεν θα διαφωνήσω με τον Μιλτιάδη μάλλον έτσι πρέπει να γίνουν τα πράγματα…
ωστόσο για να μην απογοητευτείς μπορείς να δεις τα παρακάτω ,
όμως μην ξεχνάς πως εδώ οι ταμπλατουρες είναι για τρίχορδα…

Σελ 1 και σελ 42 το πιτσιρίκι
Σελ 4 σε γελασανε
Σελ 6 παξιμαδοκλεφτρα
Σελ 13 μαύρα μάτια μαύρα φρύδια
Σελ 30 η ατσιγγανα
Σελ 35 παίζουν τα μπαγλαμαδακια
Σελ 37 τα ματόκλαδα σου λάμπουν
Σελ 43 φίνο φαναράκι
Σελ 44 το ζεϊμπέκικο της ευδοκίας
Σελ 46 ο Μάρκος υπουργός
Σελ 54 χτες το βράδυ στου Καριπη


Τίτλος: Απ: Παρτιτούρες για Μπαγλαμά Τζουρά 3χορδο μπουζούκι...
Αποστολή από: saltadoros23 στις Ιανουάριος 17, 2011, 09:41:59 μμ
Τώρα που το είδα, πως θα γίνει ρε παιδιά να φτιάξουμε μια λίστα που είναι το κάθε τραγούδι; Γιατί ψάχνω όλο το φόρουμ κάθε τρεις και δύο ;D


Τίτλος: Απ: Παρτιτούρες για Μπαγλαμά Τζουρά 3χορδο μπουζούκι...
Αποστολή από: ΜΑΚΗΣ στις Ιανουάριος 17, 2011, 09:49:15 μμ
Τώρα που το είδα, πως θα γίνει ρε παιδιά να φτιάξουμε μια λίστα που είναι το κάθε τραγούδι; Γιατί ψάχνω όλο το φόρουμ κάθε τρεις και δύο ;D



Φίλε μου, κάθεσαι μια μέρα κάνα μισάωρο και τα περνάς σε έναν φάκελο
Όπως έκανα εγώ!!!
Και κάθε τόσο το ανανεώνω, και βοηθώ και κανένα φίλο


Τίτλος: Απ: Παρτιτούρες για Μπαγλαμά Τζουρά 3χορδο μπουζούκι...
Αποστολή από: tomalas στις Ιανουάριος 17, 2011, 09:55:16 μμ
Μιλτιαδη και Μακη σας ευχαριστω για τις αμεσες απαντησεις σας και το εκτιμω ιδιαιτερως...

ρωτησα καποιους γνωστους περι δρομων και συμφωνησαν και αυτοι πως οι δρομοι ειναι μια καλη αρχη μεχρι να αποκτησω 'αφτι'!!!

ευελπιστω να 'ανοιξουν' γρηγορα τα δακτυλα και να πιασω γρηγορα δουλεια!!!

καλη συνεχεια σε ολους και συνεχιστε τη καλη δουλεια!!!!


Τίτλος: Απ: Παρτιτούρες για Μπαγλαμά Τζουρά 3χορδο μπουζούκι...
Αποστολή από: koyrkoylakos antonios στις Ιανουάριος 18, 2011, 11:54:05 πμ
αν μπορω να βοιθεισω ειναι καλο στο τραγουδι που μπενει να γραφεται ο δρομος και ο τονος διλαδι ειναι ρε χιζταζ η μι ουσακ καλα αν εχω μπει και γω!


Τίτλος: Απ: Παρτιτούρες για Μπαγλαμά Τζουρά 3χορδο μπουζούκι...
Αποστολή από: yiannis tsironis στις Ιανουάριος 22, 2011, 12:22:51 πμ
Τις Καλησπέρες μου σε όλους!
θα ήθελα να σας ευχαριστήσω για την υπέροχη και φανταστική κίνηση που κάνατε να αναρτήσετε ταμπαλούτουρες σε αυτό το φόρουμ. Είμαι 37 ετών και γρατσουνάω το μπουζουκάκι μου εδω και 3-4 μήνες και χάρη σε όλους εσάς μπορώ να πω ότι έχω βγάλει κάποια τραγουδάκια και γουστάρω.
ΕΝΑ ΜΕΓΑΛΟ ΕΥΧΑΡΙΣΤΩ!!!!
Θερμή παράκληση: εάν μπορεί κανείς να αναρτήσει σε ταμπλατούρα το Σακάκι του Δελιά για τρίχωρδο.



Τίτλος: Απ: Παρτιτούρες για Μπαγλαμά Τζουρά 3χορδο μπουζούκι...
Αποστολή από: yiannis tsironis στις Ιανουάριος 22, 2011, 01:13:44 πμ
ΤΟ ΧΑΡΕΜΙ ΣΤΟ ΧΑΜΑΜ - ανεστης δελιας
(3)-0-0-0-(3)-0-0--0-3-2-1-0-(3)-0--0-3-5-1-1-(3)-0-0-3-2-1-0-(3)-0--7-5-7-3-1-(3)-0-0-3-2-1-0-(3)-0--7-7-3-5-1-(3)-0-0-3-2-1-0-(3)-0-7-5-7-3-1-(3)-0--0-3-2-1-0-(3)-0

3-5-7-7-7-3-5--5-3-7-3-5-2-3 x2

3-2-3-5-1-(3)-0-0-3-2-1-0-(3)-0 x2

μπορεί κάποιος να κάνει
Μαύρη ζωή μικρούλα μου http://www.youtube.com/watch?v=fmENVZp3c5Q&feature=fvsr ???

Αγαπητέ vaggeli,
Οι παρενθέσεις τι είναι;


Τίτλος: Απ: Παρτιτούρες για Μπαγλαμά Τζουρά 3χορδο μπουζούκι...
Αποστολή από: ΜΑΚΗΣ στις Ιανουάριος 22, 2011, 12:11:03 μμ
ΤΟ ΧΑΡΕΜΙ ΣΤΟ ΧΑΜΑΜ - ανεστης δελιας
(3)-0-0-0-(3)-0-0--0-3-2-1-0-(3)-0--0-3-5-1-1-(3)-0-0-3-2-1-0-(3)-0--7-5-7-3-1-(3)-0-0-3-2-1-0-(3)-0--7-7-3-5-1-(3)-0-0-3-2-1-0-(3)-0-7-5-7-3-1-(3)-0--0-3-2-1-0-(3)-0

3-5-7-7-7-3-5--5-3-7-3-5-2-3 x2

3-2-3-5-1-(3)-0-0-3-2-1-0-(3)-0 x2

μπορεί κάποιος να κάνει
Μαύρη ζωή μικρούλα μου http://www.youtube.com/watch?v=fmENVZp3c5Q&feature=fvsr ???

Αγαπητέ vaggeli,
Οι παρενθέσεις τι είναι;


λογικα είναι η μεσαια χορδή, η λα

Το σακάκι φίλε μου μάλλον δεν υπάρχει μέσα στις σελίδες
Ωστόσο υπάρχουν άλλα του Δελια



Παρ όλα αυτά δες και στην σελίδα 1 μια παρουσίαση του για κιθάρα!!!


Τίτλος: Μες τον πράσινο το μύλο
Αποστολή από: Κατσαούνης Πάρης στις Ιανουάριος 23, 2011, 01:12:13 πμ
Παιδια Μπράβο σας, πού ωραίο το forum!!!
Αν μπορεί κάποιος να με βοηθήσει, ψάχνω ταμπλάτούρα για μπαγλαμά το "μες τον πράσινο το μύλο"!!!


Τίτλος: Απ: Παρτιτούρες για Μπαγλαμά Τζουρά 3χορδο μπουζούκι...
Αποστολή από: kthulu στις Ιανουάριος 23, 2011, 05:03:08 πμ
αγόρασα και εγώ πρόσφατα το πρώτο μου τρίχορδο (τζουρά) και επί της ευκαιρίας βάζω ένα τραγουδάκι που μου αρέσει (όπως μου ακούγεται) Θα χαιρόμουν αν το διόρθωνε κανεις για τυχών λάθη, να το μάθουμε καλύτερα.  

Καπνουλού Μπαγιαντέρας

εισαγωγή
-9-6-10-7-12-9-10-10-9-10-12-10-9-7-6-6-7-9-8-9-9-6-10-7-12-9-10-10-9-10-12-10-9-7-6-7-----
7---7----7-----------7-----------------7----------7---7-----7----------7--------------------8--7
--------------------------------------------------------------------------------------------------

λόγια
-6-7-9-8-7-10-9-8-9--6-7-9-7-6-10-9-6-7-9-8-7-10-9-8-9--6-7-9-7-6---------
7-------------------------------8----7--------------------------------8-8-7-7-
-------------------------------------------------------------------------------

γύρισμα
7-7-9-7-6-----9-8-9--7-7-9-7-6-----
----------8-7-------------------8-7-
-------------------------------------


Τίτλος: Απ: Παρτιτούρες για Μπαγλαμά Τζουρά 3χορδο μπουζούκι...
Αποστολή από: ps_giannic στις Ιανουάριος 23, 2011, 12:57:14 μμ
Καλημέρα παιδιά....
Είμαι καινούριος εδώ και θα ήθελα να ρωτήσω αν μπορεί κάποιος να ανεβάσει το ''γιατί καλέ γειτόνισσα''
του Άκη Πάνου.

Ευχαριστώ..


Τίτλος: Απ: Μες τον πράσινο το μύλο
Αποστολή από: ΜΑΚΗΣ στις Ιανουάριος 23, 2011, 07:31:56 μμ
Παιδια Μπράβο σας, πού ωραίο το forum!!!
Αν μπορεί κάποιος να με βοηθήσει, ψάχνω ταμπλάτούρα για μπαγλαμά το "μες τον πράσινο το μύλο"!!!


σελις 44
αρθρον β
παραγραφος ξ !!!


Τίτλος: Απ: Παρτιτούρες για Μπαγλαμά Τζουρά 3χορδο μπουζούκι...
Αποστολή από: Κατσαούνης Πάρης στις Ιανουάριος 24, 2011, 10:02:50 μμ
Ευχαριστώ Μακη.


Τίτλος: Απ: Παρτιτούρες για Μπαγλαμά Τζουρά 3χορδο μπουζούκι...
Αποστολή από: thodoris στις Ιανουάριος 25, 2011, 11:30:22 πμ
    Γιατί Καλέ Γειτόνισσα

 Μουσικη-Στιχοι : Άκης Πάνου

 Εισαγωγή :

 1η :-0---2----4--2--0--2---4----5--6----9--10--9--7--5--7--4--5---2---0---5--5--9       

 1η :--7--7--10--9--9--12--10--10--12--9--9--10--7--7--9--5--5--7

 1η :--4--7--5--5---5---5---0---2----4--2--0--2---4----5--6----9--10--9--6---5--6--4

 1η :--5------9--10--12--13--10--12--9--10------9-------12--10--9------------------------------
 2η :-----7-----------------------------------11-----10--------------11--10--9--7---7--9--10--11

 1η :--9--10--9--9--12--10--9---------------------------------------------
 2η :---------------------------11--10--9--7--7--9--5--9--7--

 Λόγια :

Α
2η :-7----7----7----5----7----9----10----11--10--9--11--10----10------11--10--9--10-----11--10--9--10

 2η :-----11--10--9--11--10--9--7---9---10--11--10--9--10----10----10----10----
 
Β

 1η :-----------------------------------------------------14--12--14--12--14--12--14---12---
 2η :11----11----10----9----7----7-----------------------------------------

 1η :10--9----9--9--9----------------------------------------
 2η :-------11--11--10--11--9--10--7--9--7--9--5--9--5--9--

Γ

 2η :-10--11--10--9--10----10----10----11----11----10----9----7----7----

 1η :-14--12--14--12--14--12--14---12---10--9------9--9------9-------------------------------
 2η :---------------------------------------------11--------11----10--11--9--10--7---7---7---5

 Ρεφρέν :

 2η :-7--9--7--5--7--9--10--11--10--11-10--9--7---5---7--9--7--5--7--9--10--11-

 1η :-9--10--12--14--10--12--9--10------9------------------------------------------12------12-
 2η :---------------------------------11-----10-----11--10--9--10--15--14--13--14------14-----

 1η :-17---17---17---0----------------------------------------------------------9-----------------
 2η :-14---14---14-------7---9---10---11---10---9---7---5---7---9---10---11-------11---10---11-

 1η :--9------------------------------------14--12--14--12--14--12--14---12--10--9-------------
 2η :------11---11---10---10---9---7---7---------------------------------------------11--10--9--7---7---7


Οι υπογραμμισμενες ειναι τριηχα,οι κοκκινες παιζονται με τρεμολο και οσον αφορα τα λογια τα παιζουμε με την εξης σειρα : Α-Β-Α-Γ.Ελπιζω να εγινα κατανοητος.


Τίτλος: Απ: Παρτιτούρες για Μπαγλαμά Τζουρά 3χορδο μπουζούκι...
Αποστολή από: kosta 747 στις Ιανουάριος 25, 2011, 05:12:34 μμ
tha ithela na mathw an ta tragoudia pou me kopo exete ftiaksi pezontai kai se tetraxordo mpouzouli kai pos?


Τίτλος: Απ: Παρτιτούρες για Μπαγλαμά Τζουρά 3χορδο μπουζούκι...
Αποστολή από: marKiS στις Ιανουάριος 25, 2011, 10:10:20 μμ
Τα περισσότερα τραγούδια παίζονται στης δυο πρώτες χορδές που είναι ίδιες και στα δυο όργανα (re kai la) επόμενος μπορείς , και εγώ τετράχορδο έχω….


Τίτλος: Απ: Παρτιτούρες για Μπαγλαμά Τζουρά 3χορδο μπουζούκι...
Αποστολή από: kosta 747 στις Ιανουάριος 26, 2011, 11:28:17 πμ
se efxaristo poli file marki i apantisi sou itan poli grigori........ thermi paraklisi an kapoios kserei to tragoudi
to diko mou paploma kai to sirma pano sirma kato paizo egw to mpaglama kai mporei as ta anevasei efxaristw
kai pali olous kai sinxaritiria gia ti poli orea doulia pou kanete!!!!!!!!!!!!!!!!!!


Τίτλος: Απ: Παρτιτούρες για Μπαγλαμά Τζουρά 3χορδο μπουζούκι...
Αποστολή από: Λάμπρος στις Ιανουάριος 26, 2011, 04:59:59 μμ
Μάγκες αν έχει κάποιος το κομμάτι "Δωμάτιο στο Αμστερνταμ" και έχει και τον χρόνο και την καλοσύνη ας το ανεβάσει...

καλές πενιές σε όλους..


Τίτλος: Απ: Παρτιτούρες για Μπαγλαμά Τζουρά 3χορδο μπουζούκι...
Αποστολή από: ΜΑΚΗΣ στις Ιανουάριος 26, 2011, 08:10:40 μμ
αγόρασα και εγώ πρόσφατα το πρώτο μου τρίχορδο (τζουρά) και επί της ευκαιρίας βάζω ένα τραγουδάκι που μου αρέσει (όπως μου ακούγεται) Θα χαιρόμουν αν το διόρθωνε κανεις για τυχών λάθη, να το μάθουμε καλύτερα.  

Καπνουλού Μπαγιαντέρας

εισαγωγή
-9-6-10-7-12-9-10-10-9-10-12-10-9-7-6-6-7-9-8-9-9-6-10-7-12-9-10-10-9-10-12-10-9-7-6-7-----
7---7----7-----------7-----------------7----------7---7-----7----------7--------------------8--7
--------------------------------------------------------------------------------------------------

λόγια
-6-7-9-8-7-10-9-8-9--6-7-9-7-6-10-9-6-7-9-8-7-10-9-8-9--6-7-9-7-6---------
7-------------------------------8----7--------------------------------8-8-7-7-
-------------------------------------------------------------------------------

γύρισμα
7-7-9-7-6-----9-8-9--7-7-9-7-6-----
----------8-7-------------------8-7-
-------------------------------------



Μήπως μπορείς να πεις που μπαίνει το γύρισμα
Και που τα λόγια Γιατί δεν το γνωρίζω το κομμάτι
Και μου ρχετε κομματάκι «σκούρο»; ???


Τίτλος: Απ: Παρτιτούρες για Μπαγλαμά Τζουρά 3χορδο μπουζούκι...
Αποστολή από: kthulu στις Ιανουάριος 26, 2011, 08:26:50 μμ
αυτό είναι το κομμάτι: http://www.youtube.com/watch?v=ihUNjdV5mTw

Πριν πάρω τζουρά το έπαιζα αλλιώς, ίσως να φταίει και το κούρδισμα δεν ξέρω πάντως μπορείς να το βγάλεις και κάπως έτσι εναλλακτικά και για πιο ευκολα:

-0-7-4-0-8-5-0-10-7-8-8-0-7-8-10-8-7-5-4-0-4-5-7-6-7
--------------------------------------------------------
-------------------------------------------------------

επισης το γυρισμα ξεκιναει με το που τελειωνουν τα λογια και πεζεται Χ2.


Τίτλος: Απ: Παρτιτούρες για Μπαγλαμά Τζουρά 3χορδο μπουζούκι...
Αποστολή από: ΜΑΚΗΣ στις Ιανουάριος 26, 2011, 09:00:00 μμ
αυτό είναι το κομμάτι: http://www.youtube.com/watch?v=ihUNjdV5mTw

Πριν πάρω τζουρά το έπαιζα αλλιώς, ίσως να φταίει και το κούρδισμα δεν ξέρω πάντως μπορείς να το βγάλεις και κάπως έτσι εναλλακτικά και για πιο ευκολα:

-0-7-4-0-8-5-0-10-7-8-8-0-7-8-10-8-7-5-4-0-4-5-7-6-7
--------------------------------------------------------
-------------------------------------------------------

επισης το γυρισμα ξεκιναει με το που τελειωνουν τα λογια και πεζεται Χ2.





Ευχαριστώ, για την άμεση ανταπόκριση, ωστόσο εκεί που λες       «λόγια»                                                                                                                                          σε όλοι την σειρά μπαίνει ο στίχος για πχ :

Ρε καπνουλού μου έμορφη, σ' αρέσει το ντουμάνι

Ευχαριστώ, και πάλη



Τίτλος: Απ: Παρτιτούρες για Μπαγλαμά Τζουρά 3χορδο μπουζούκι...
Αποστολή από: marKiS στις Ιανουάριος 29, 2011, 12:27:22 μμ
Το άσπρο πουκάμισο φορώ του Καζαντζίδη, αυτήν την τραγουδαρα την  έχει κανένας .??


Τίτλος: Απ: Παρτιτούρες για Μπαγλαμά Τζουρά 3χορδο μπουζούκι...
Αποστολή από: matzore στις Ιανουάριος 29, 2011, 03:41:41 μμ
pane stin selida
enxordo.gr
kai tha wri s tin snkekrimeni pou zitas
kai poles alles endiaferouses

ps.o rebetis re paidia ti egine mipos ton kourasame me tis paragielies
i.....eine me allo uzer name mesa gia na min ton zalizoume
giasas kai ta leme


Τίτλος: Απ: Παρτιτούρες για Μπαγλαμά Τζουρά 3χορδο μπουζούκι...
Αποστολή από: ΡΕΜΠΕΤΗΣ στις Ιανουάριος 29, 2011, 05:17:36 μμ
Καλησπερα φιλοι τριχορδοι, εδω ειμαι δε σας ξεχασα, και εχω οπως παντα αρκετο υλικο
Σε τρεις μηνες θα εχω και το καινουριο μου τριχορδο, οποτε θα ανεβαζω και με μεγαλυτερη ορεξη
Επι την ευκαιρια σημερα το βραδυ θα σας δωσω το "Ωραια Θεσσαλονικια " του Γενιτσαρη, που μου το παραγγειλε ο φιλος koyrkoylakos σε pm.
Οποιος εδιαφερεται μπορει να το ακουσει εδω  http://www.youtube.com/watch?v=7Xh7Jc3jpM8


Τίτλος: Απ: Παρτιτούρες για Μπαγλαμά Τζουρά 3χορδο μπουζούκι...
Αποστολή από: kthulu στις Ιανουάριος 29, 2011, 06:12:19 μμ
Ευχαριστώ, για την άμεση ανταπόκριση, ωστόσο εκεί που λες       «λόγια»                                                                                                                                          σε όλοι την σειρά μπαίνει ο στίχος για πχ :

Ρε καπνουλού μου έμορφη, σ' αρέσει το ντουμάνι

Ευχαριστώ, και πάλη

γεια χαρα τα λογια πανε ετσι στο περιπου

Kapnoulou mou emorfh   saresei to doumani
-6--7---9-8-7-10-989--6-797--6----10--9
7---------------------------------8-------
------------------------------------------

+ άλλη μια για το επόμενο δύστυχο


Τίτλος: Απ: Παρτιτούρες για Μπαγλαμά Τζουρά 3χορδο μπουζούκι...
Αποστολή από: ΡΕΜΠΕΤΗΣ στις Ιανουάριος 30, 2011, 12:53:34 πμ
“Ωραία Θεσσαλονικιά”  -  Μ. ΓΕΝΙΤΣΑΡΗ


0--0---0---0--0-5-3-5-2--0----   }
0----3---3-0------------3-0---3   }   Χ2
0----------0--------------0----   }


2-3-5-6-5-6-5-6-5-3-2-3-5-6-5--6-5-3-2-3-5-6-9-6-10-9-6-5-3-3-2-1-0-0----   }
-------------------------------------------------------------------------0---3   }  Χ2
-------------------------------------------------------------------------0----   }


Τραγούδι

Στα ό--ρη βγαί-νει η κά--πα--ρη------- στα όρη βγαίνει η κά-πα--ρη
----0---0---0---0-0-7-5-3-2-3-5-3-2-0-0-0--0--0--0-0-7-5-3-2-3----
3---------------------------------------------------------------------
----------------------------------------------------------------------


στα ό--ρη βγαί-νει η κά--πα--ρη      τα- χεί--λη σου- είναι ζά--χα--ρη
2-3-5---5---5---5-3-2-3-5---5-----2-3-5---5-3-5-6-5-3-3-2-1-0-0----
------------------------------------------------------------------0---3
------------------------------------------------------------------0----


2-3-5--5--5-6-5-3-2-3-5-6-5--6-5-3-2-3-5-6-9-6-10-9-6-5-3-3-2-1-0-0----
----------------------------------------------------------------------------
----------------------------------------------------------------------------


κιό-λο μου λέν   λό-για γλυκά---- κιό-λο μου λέν   λό-για γλυκά
10--9--10--7----10--9-10-7----5-10--9--10--7----10--9-10-12----
-------------------------------------------------------------------
-------------------------------------------------------------------


κιό-λο μου λέν----λόγια γλυκά  ω---ραί-α-- θεσ-σα--λο--νι--κιά
2-3-5--5--5-6-5-3-2--3-5-5----2-3-5--5-3-5-6-5-3-3-2-1-0-0----
-------------------------------------------------------------0----
-------------------------------------------------------------0----


Τίτλος: Απ: Παρτιτούρες για Μπαγλαμά Τζουρά 3χορδο μπουζούκι...
Αποστολή από: *MadmaX* στις Ιανουάριος 30, 2011, 03:59:18 πμ
Η ΠΕΝΤΑΜΟΡΦΗ του Χατζηχρήστου
--Μια από τις πιο μελωδικές εισαγωγές σε ρεμπετικο, που θα φχαριστιέστε να την παίζετε :-)

0----------0-1-4-1-0----0------0------0-
0-3-2-3----------------0----0-----0------
0-------------------------------------------

0----------0-1-4-1-0----------------------
0-3-2-3----------------0-5-0-5-0-5-----
0-------------------------------------------

12-10-8-7--10-8-7-5—8-7-5-4—7-5-4----------------4-5-7-8-9-10-9-8-7-7—7---7---------
--------------------------------------6-5-3-2-3-5-6-----------------------9---9-----------
---------------------------------------------------------------------------------------------------------

12-10-8-7--10-8-7-5—8-7-5-4—7-5-4------------------4-5-7-5-4---4---------------4---4
--------------------------------------6-5-3-2-3-5-6--------------6---5-3-6-5—5--5-----
----------------------------------------------------------------------------------------------------------

ΤΡΑΓΟΎΔΙ
12-13-16-12----16-16-13-16-12-12-                                      16-16-12-13-12-13-16-12
---------------------------------------------      γέμισμα         --------------------------------
--------------------------------------------                           --------------------------------

Γύρισμα -16-13-12-10

-10-10-10-10---10-10-10-10-12-10-9-10-10-10-10-
----------------------------------------------------------------
---------------------------------------------------------------

16(16-16)-10-12-10-12-16-12-16-    Γύρισμα -16-13-12-10
-------------------------------------------
------------------------------------------

-10-10-10-10---10-10-10-10-12-10-9-10-10-10-10-
----------------------------------------------------------------
---------------------------------------------------------------

16(16-16)-10-12-10-12-16-12-12-
-------------------------------------------
-------------------------------------------


Τίτλος: Απ: Παρτιτούρες για Μπαγλαμά Τζουρά 3χορδο μπουζούκι...
Αποστολή από: kosta 747 στις Φεβρουάριος 01, 2011, 11:11:35 πμ
kalimera re magkes!!!!!!!!!!! tha ithela na matho an kserei kaneis o atopos pou ksekinise olo afto to skiniko edo ti exei ginei pou briskete????????? mono stin arxi ton vlepo kai pouthena alou!!!!!!!!!!!


Τίτλος: Απ: Παρτιτούρες για Μπαγλαμά Τζουρά 3χορδο μπουζούκι...
Αποστολή από: philipas στις Φεβρουάριος 01, 2011, 11:42:19 πμ
kalimera re magkes!!!!!!!!!!! tha ithela na matho an kserei kaneis o atopos pou ksekinise olo afto to skiniko edo ti exei ginei pou briskete????????? mono stin arxi ton vlepo kai pouthena alou!!!!!!!!!!!

Καλη σου μερα φιλε και σε ολα τα παιδια!!!

Ειναι ισως η πιο πετυχημενη ερωτηση που εχει γινει μεσα στο forum
τοση δουλεια εχει γινει εδω μεσα και αυτος που την ξεκινησε....!

Αραγε εχει δει καθολου απο το αποτελεσμα???


Τίτλος: Απ: Παρτιτούρες για Μπαγλαμά Τζουρά 3χορδο μπουζούκι...
Αποστολή από: vaggeli στις Φεβρουάριος 02, 2011, 05:25:46 πμ
γιατί γλυκιά μου κλαις

(10)-12-12-10-12  [2x] (10)-10-10-8-10  7---8-10-7-8-7-6-5   [2x]             [7-8-7-6-5 πολύ γρήγορα]
0-5-5-0-5-0-5-5-0-5-5

Γιατί γλυκιά μου κλαις   (2x)
3   5  5   5   8    7       (2x)

Γιατί γλυκιά μου κλαις
3   8  8   8  12   10
και σήμερα και χτες
12  10 8 7  10  8
και την καρδιά μου σκίζεις
6   5    5    5  8     7   7

χωρίς να μου το λες
5   3   3  3    5   5

                             Θαρρείς δεν σ’ αγαπώ      Θαρρείς δεν σ’ αγαπώ        
7-5-3-5-5-5-5-2-5-7-8 8 8    9  12-9-8-7-8--7-8 8 8   9    12 9 8 7 8

θαρρείς δεν σ’ αγαπώ    μα εγώ όμως προτιμώ
7   8     8    8  12 10    10  8  7 7 7    7 10 8


τη μαύρη γης να πάρω, παρά να σ’ αρνηθώ
6  5   5    5    8  7  7    7  5  3   5  5  5 5           7-5-3-5-5-5-5

Γιατί γλυκιά μου κλαις, γιατί γλυκιά μου κλαις
γιατί γλυκιά μου κλαις και σήμερα και χτες
και την καρδιά μου σκίζεις, χωρίς να μου το λες



Τίτλος: Απ: Παρτιτούρες για Μπαγλαμά Τζουρά 3χορδο μπουζούκι...
Αποστολή από: Σωτήρης στις Φεβρουάριος 02, 2011, 04:03:56 μμ
εεε ρε γλέντια...!   :o


Τίτλος: Απ: Παρτιτούρες για Μπαγλαμά Τζουρά 3χορδο μπουζούκι...
Αποστολή από: nikkortis στις Φεβρουάριος 03, 2011, 12:55:45 πμ
παιδια μπραβο σας!!! εδω και καιρο εχω αυτην την απορια μιας και αμα δειτε στην δευτερη μολις σελιδα γραφω και εγω... δηλαδη απο την αρχη αυτης της προσπαθειας. το θεμα ειναι οτι εγω βρηκα αυτο το φορουμ και ποσταρα 20 αυγουστου 2009 και ο ατοπος το ανοιξε 2007... απο τοτε τι εγινε? πολυ θα ηθελα να μαθω τι κανει? παμε γερα παιδια να αυξησουμε τα τραγουδια!!!


Τίτλος: Απ: Παρτιτούρες για Μπαγλαμά Τζουρά 3χορδο μπουζούκι...
Αποστολή από: Jpon στις Φεβρουάριος 03, 2011, 05:56:19 μμ
Έχει κανείς το "Πορτοφόλι" του Μάρκου?Έχω βγάλει την εισαγωγή αν θέλει κανείς να την ανεβάσω,αλλά δεν μπορώ να βγάλω το υπόλοιπο.


Τίτλος: Απ: Παρτιτούρες για Μπαγλαμά Τζουρά 3χορδο μπουζούκι...
Αποστολή από: ΜΑΚΗΣ στις Φεβρουάριος 03, 2011, 08:27:24 μμ
Άντε κι ένα ευκολάκι από
Νίκο Παπάζογλου

ΟΙ ΜΑΓΚΕΣ ΔΕΝ ΥΠΑΡΧΟΥΝ ΠΙΑ

Εισαγωγή

1)7-3-5-1-0-1-0/-/0         ×4
2)--------------3

Λόγια

Οι μα..δ.υ παρ. πιααα       
0-0-0-0-0-7-3-5/5/5/5

Τους …  το τρεεενο                     ×2
5-7-8-7-5-7/5/3-2-3-2-1-0       




Καλές πενιές !!!


Τίτλος: Απ: Παρτιτούρες για Μπαγλαμά Τζουρά 3χορδο μπουζούκι...
Αποστολή από: ΜΑΚΗΣ στις Φεβρουάριος 03, 2011, 08:33:55 μμ
Έχει κανείς το "Πορτοφόλι" του Μάρκου?Έχω βγάλει την εισαγωγή αν θέλει κανείς να την ανεβάσω,αλλά δεν μπορώ να βγάλω το υπόλοιπο.


Τι τραγουδάρα «έθιξες» ρε φίλε!!!
Άντε τα ταλέντα μας  ;)
Βοήθεια!!!


Τίτλος: Απ: Παρτιτούρες για Μπαγλαμά Τζουρά 3χορδο μπουζούκι...
Αποστολή από: vaggeli στις Φεβρουάριος 04, 2011, 12:58:04 πμ
http://www.youtube.com/watch?v=Ci2iYFswwX0
To Tsifteteli Tou Mpourneli

(3)-(5)-(5)-(5)-(5)-(3)-(5)-(5)-(5)-(5)-((5))-(0)-(2)-(3)-(5) x2

3-2-1-0-3-2-1-0-3-2-1-0-0-(3)-0 x2

((5))-(0)-(2)-(3)-0-2-3-5-5-5-3-2-1-7-7      ((5))-(0)-(2)-(3)-0-2-3-5-5-5-3-2-1-0-(3)-0  x2

5-7-7-7-8-7-5-7-10-9-10-12-8-7-5-7  x2

10-9-8-7-10-9-8-7-10-9-10-12-8-7-5-7 x2

10-12-12-12-12-12-10-12--(10)-(12)-9-10-13-12-10-12   x2

15-14-13-12-15-14-13-12-15-14-13-12-12-10-12    x2

12-13-10-12-8-10-7----10-12-8-10-7-8-5----8-10-7-8-5-7-5-5-5-3-2-1-0-(3)-0


Τίτλος: Απ: Παρτιτούρες για Μπαγλαμά Τζουρά 3χορδο μπουζούκι...
Αποστολή από: alterna στις Φεβρουάριος 05, 2011, 03:27:30 μμ
Ματσάκια πεντοχίλιαρα
   
Στίχοι-Mουσική: Μάρκος Βαμβακάρης
Link: http://www.youtube.com/watch?v=mezdDdBnUr0

Έχει ανέβει παλαιότερα αλλά δεν μου ταίριαζε και είπα να βάλω και την δικιά μου εκδοχή.

Εισαγωγή
------------------------------------------------------------------------------
8---13----8----9---8----9----11----8----5---6---5—6---5---6--7---8---
------------------------------------------------------------------------------
 

---------------------------------------------------------------------------------
8---13---8---9-- 8----9----11----8---5---6-- 8---6----5---2---1---0---0 --1                         
---------------------------------------------------------------------------4------   
Λόγια

Ματσάκια πεντοχίλιαρα                                    θες για να την περάσεις                               
---------------------------------------------------------------------------------
8---13---8---9 ----6----8----9--- 8-----6----5 --- 5---- 6 --- 5--- 6 ---- 8--- 9 -8
-----------------------------------------------------------------------------------


κι όταν καλά καλά σκεφτείς                             βρε τα μυαλά θα χάσεις
-------------------------------------------------------------------------------------
8--13---8-- 9--- 6 ----8--- 9--- 8--- 6 ----5---- 5----6-- 8----6-- 5---- 2--- 1 ---1
------------------------------------------------------------------------------------



κι όταν καλά καλά σκεφτείς                            βρε τα μυαλά θα χάσεις
---------------------------------------------------------------------------------------
8 -13 - 8-- 9---- 6----8----9----8---- 6----5---- 5---- 6 --5---6---8---9-- 8----
---------------------------------------------------------------------------------------




Ματσάκια πεντοχίλιαρα                                   θες για να την περάσεις
----------------------------------------------------------------------------------------
10--11--11--11--11---11--- 9---  8---- 6-----5 --- 2---- 6 ----5---- 2 ----- 1----
----------------------------------------------------------------------------------------

Είναι και επίκαιρο το κομμάτι ένεκα οικονομικής κρίσεως..Α ρε Μάρκο 100 χρόνια μετά και πάντα επίκαιρος...




Τίτλος: Απ: Παρτιτούρες για Μπαγλαμά Τζουρά 3χορδο μπουζούκι...
Αποστολή από: alterna στις Φεβρουάριος 05, 2011, 05:43:19 μμ
Ένα ακόμα του Μάρκου..
Link: http://www.youtube.com/watch?v=gbGC3Nm2XaA
Τώρα την καλοκαιριά

Εισαγωγή

-----4---5---6-----7---7----4-----4----5----4---3----4-----0---0---7----6----7----9---10----12---10--9--9--7--7--6--7
----------------------------------------------------------------------------------------------------------------------------------
----------------------------------------------------------------------------------------------------------------------------------


-----4---5---6-----7---7----4-----4----5----4---3----4-----0---0---7----6----7----9---7----5---4---3----0------  0---------
----------------------------------------------------------------------------------------------------------------------0-------------------------------------------------------------------------------------------------------------------
---------------------------------------------------------------------------------------------------------------------


Λόγια

Τώρα την καλοκαιριά μικρό μου                       φεύγεις απ' το σπίτι το δικό μου

--0-------0-----4-----7---7---6---7--8---7---------7---6---7---9---10--10---10---10----8---7----5----------
------0--------------------------------------------------------------------------------------------------------------
---------------------------------------------------------------------------------------------------------------------

έννοια σου και θα το μετανιώσεις                              σαν το κεράκι αλανιάρα μου θα λιώσεις
        

----7--8--7----5----4----5---7----8------10-----12----7----7---7---7----7-----5----3---2----5--5---5---5---3----2----0

----------------------------------------------------------------------------------------------------------------------------------

----------------------------------------------------------------------------------------------------------------------------------



έννοια σου και θα το μετανιώσεις                               σαν το κεράκι αλανιάρα μου θα λιώσεις
        

----7--8--7----5----4----5---7----8------10-----12----7----7---7---7----7-----5----3---2----5--5---5---5---3----2----0

---------------------------------------------------------------------------------------------------------------------

---------------------------------------------------------------------------------------------------------------------


Τίτλος: Απ: Παρτιτούρες για Μπαγλαμά Τζουρά 3χορδο μπουζούκι...
Αποστολή από: nikkortis στις Φεβρουάριος 05, 2011, 07:15:41 μμ
παιδια ΜΠΡΑΒΟ δεν θα σταματησω να το λεω!!!! καθε φορα που ανεβαινει ενα κομματι τρελαινομαι. πιανω το τριχορδο και προσπαθω να το βγαλω. οταν μαλιστα τα καταφερνω νομιζω οτι ειμαι πιο ευτιχισμενος ανθρωπος! συντομα θα ανοιξω ενα τοπικ να βαλουμε φωτογραφιες τα τριχορδα μας (πηγαινω για αγορα τζουρα οπου να ναι!)

alterna εγραψες!!!!


Τίτλος: Απ: Παρτιτούρες για Μπαγλαμά Τζουρά 3χορδο μπουζούκι...
Αποστολή από: nikkortis στις Φεβρουάριος 06, 2011, 11:25:51 μμ
http://www.youtube.com/watch?v=P7flZi0Jt6E&feature=related


Τίτλος: Απ: Παρτιτούρες για Μπαγλαμά Τζουρά 3χορδο μπουζούκι...
Αποστολή από: vaggeli στις Φεβρουάριος 07, 2011, 12:38:45 πμ
Ο ΠΟΝΟΣ ΤΟΥ ΠΡΕΖΑΚΙΑ

http://www.youtube.com/watch?v=BupKYo5lWC8&feature=related

re-10-10-13--11-10-9-10-13-6-10        x3        
la-11-11--------------------
re-13-13---------------------

11-10-9-10-11-10-9-10----------10
------------------------11------11
----------------------------13--13


Απ' τον και--ρό που   άααα--ρ-χι-σα   την πρέ-ζα να    φου---μάαααααααααα---ρω,          
------------------------------------------------------------------------------------
---11--11--11--11--14-13-11-10-11-----10-11-13---14----16--14-13--11--13
13-----------------------------------13---------------------------------------




ο     κόσ-μος   μ'α-παρ-νή-θη-κε  δεν ξέ--ρω   τι    να     κάαααααααααααααααααα-νω,
---------------------------------------------------------------------------------
13--14--14---14--14--14-13-11-10--11--11---13--14---13(τρεμολο                )-11
---------------------------------------------------------------------------------


Τίτλος: Απ: Παρτιτούρες για Μπαγλαμά Τζουρά 3χορδο μπουζούκι...
Αποστολή από: marKiS στις Φεβρουάριος 07, 2011, 01:20:39 μμ
Άντε κι ένα ευκολάκι από
Νίκο Παπάζογλου

ΟΙ ΜΑΓΚΕΣ ΔΕΝ ΥΠΑΡΧΟΥΝ ΠΙΑ

Εισαγωγή

1)7-3-5-1-0-1-0/-/0         ×4
2)--------------3

Λόγια

Οι μα..δ.υ παρ. πιααα       
0-0-0-0-0-7-3-5/5/5/5

Τους …  το τρεεενο                     ×2
5-7-8-7-5-7/5/3-2-3-2-1-0       




Καλές πενιές !!!

     Δώσε και το παρακάτω ωραία πάει….


Τίτλος: Απ: Παρτιτούρες για Μπαγλαμά Τζουρά 3χορδο μπουζούκι...
Αποστολή από: nikosilluminati στις Φεβρουάριος 07, 2011, 01:29:32 μμ
Καλημερα παιδια,

δεν σας προλαβαινω με τιποτα. Εχω κανει home page την σελιδα και καθε μερα κοιταω για τραγουδια.

Μπορει κανεις να ανεβασει το η χηρα και η νταμιρα;

http://www.youtube.com/watch?v=x-Xso7F1dlw

πολυ καλο τραγουδακι

Ευχαριστω


Τίτλος: Απ: Παρτιτούρες για Μπαγλαμά Τζουρά 3χορδο μπουζούκι...
Αποστολή από: Κατσαούνης Πάρης στις Φεβρουάριος 08, 2011, 10:31:25 μμ
Πάρτε και ένα από εμένα

Κάτσε ν΄ακούσεις μια πενιά  (Β.Τσιτσάνης)   

Εισαγωγή
5---4---7—5—8—7—10—8--------7---12-12-12-12-12-12--11--12-14—10—9—10—12—8—10
5------------------------------------------------------------------------------------------
--------------------------------------------------------------------------------------------


7---8—10—8—7—5---4----5—7—5---4-------------------4—5—7—8—7—5—4----------------
---------------------------------------------------6---5-------------------------------------------6---5
---------------------------------------------------------------------------------------------------------


Κάτσε  ν΄ακούσεις μια  πενιά
Πιές κι ένα  πό τη   ρά        κι
----------4---5---7---10---8---7--------------4—5—7—8—10—8—7
-5---6------------------------------------5---6--------------------
--------------------------------------------------------------------


Κι αν θές ζεϊμπεκικο             γλυκό
5------5---5---7---8—10—8—7—5---12------12-11-12-14-10-9-10—12-8—7—8—10
---------------------------------------------------------------------------------------------------
----------------------------------------------------------------------------------------------------


     Πε          ρί         με  νε   λι        γά              κι
7---8—10—8—7—5---4---5---7—5—4----------------------4—5—7—8—7—5—4----------
---------------------------------------------------6---5---------------------------------------------6---5-
------------------------------------------------------------------------------------------------------------

Κάτσε ν΄ακούσεις μια πενιά
Πιές κι ένα πότηρακι
Κι αν θές ζεϊμπεκικο γλυκό
Περίμενε λιγάκι.

Πάρε σειρά γιατί μπορεί
Ίσως να μην προκάμεις
Μη μας συμβεί το σόβαρο
Και τη σειρά σου χάνεις.

Κι αν δε σ΄αρέσουν όλα αυτά
Που σου ΄χα πει πρωτίστως
Το ζεϊμπεκάκι είν΄έτοιμο
Κι έχει το λόγο ο Χρήστος.


Τίτλος: Απ: Παρτιτούρες για Μπαγλαμά Τζουρά 3χορδο μπουζούκι...
Αποστολή από: kokkoli στις Φεβρουάριος 10, 2011, 02:32:01 πμ
Λοιπόν γειά σας.Μετά απο καιρό που διαβάζω (και παίζω) το Φόρουμ είπα να κάνω και γώ εγγραφή.Πολύ σωστή δουλειά,με έχει βοηθήσει πάρα πολύ και σας ευχαριστώ.

Αλλά για να μπώ στο ψητό ζητάω και γω οποιοδήποτε τραγουδάκι του Φουσταλιέρη ξέρετε ή μπορείτε να βγάλετε.

Θα ανεβάσω και γώ με τη σειρά μου το Μερακλίδικο πουλί και οτιδήποτε αλλο ξέρω και δέν υπάρχει,είτε ρεμπέτικο είτε κρητικό η και οτιδήποτε αλλο.(Ισως αργήσω γιατί είμαι κ λίγο τεμπέλης).

Ευχαριστώ


Τίτλος: Απ: Παρτιτούρες για Μπαγλαμά Τζουρά 3χορδο μπουζούκι...
Αποστολή από: nikkortis στις Φεβρουάριος 11, 2011, 11:39:28 πμ
Λοιπόν γειά σας.Μετά απο καιρό που διαβάζω (και παίζω) το Φόρουμ είπα να κάνω και γώ εγγραφή.Πολύ σωστή δουλειά,με έχει βοηθήσει πάρα πολύ και σας ευχαριστώ.

Αλλά για να μπώ στο ψητό ζητάω και γω οποιοδήποτε τραγουδάκι του Φουσταλιέρη ξέρετε ή μπορείτε να βγάλετε.

Θα ανεβάσω και γώ με τη σειρά μου το Μερακλίδικο πουλί και οτιδήποτε αλλο ξέρω και δέν υπάρχει,είτε ρεμπέτικο είτε κρητικό η και οτιδήποτε αλλο.(Ισως αργήσω γιατί είμαι κ λίγο τεμπέλης).

Ευχαριστώ
Ελα δεν βαριομαστε  ;D ;D ;D...... παμε να γεμισουμε το site ταμπλατουρες και να γουσταρουμε ... ανεβασε οτι ξερεις! ειναι καλοδεχουμενο!  ;D


Τίτλος: Απ: Παρτιτούρες για Μπαγλαμά Τζουρά 3χορδο μπουζούκι...
Αποστολή από: rempetasker στις Φεβρουάριος 11, 2011, 02:16:54 μμ
kalispera!!mporei kapoios na anevasei "to gluko fili" tou Skraveli ,to preza otan pieis kai ton Kur-Kwstaki?


Τίτλος: Απ: Παρτιτούρες για Μπαγλαμά Τζουρά 3χορδο μπουζούκι...
Αποστολή από: Strouthos στις Φεβρουάριος 13, 2011, 04:34:36 μμ
Magkes an ginete kapios na kitaxi Κουτσαβακι apo ton thodori epidi mou fenete pos den kolai to 10 12 14


Τίτλος: Απ: Παρτιτούρες για Μπαγλαμά Τζουρά 3χορδο μπουζούκι...
Αποστολή από: Σωτήρης στις Φεβρουάριος 14, 2011, 10:16:45 μμ
Με τη μεγάλη χαρά της συνεισφοράς θα ανεβάσω κι εγώ ένα τραγουδάκι...
   
                    Μαμά μπαμπά είμαι κουκουλοφόρος
            http://www.youtube.com/watch?v=xjhx2UG8w_g (http://www.youtube.com/watch?v=xjhx2UG8w_g)             

              ρεφρέν
 
3-3-5-7-7-7        3-3-5-7--8-7-5
0----------   χ2   ---------------
0----------         ---------------

2-2-3-5-5-5        2-2-3-5---7-3
0-----------  χ2  --------------
0-----------       --------------
           
               
               γύρισμα

10-10-10-8-8-7-10
-----------------
----------------- 

8-8-8-7-7-5-8
---------------
---------------

7-7-7-5-5-4-7      2-3-5-7-8-10-12
-------------      ----------------
-------------      ----------------



10-10-10-8-8-7-10
-----------------
----------------- 


8-8-8-7-7-5-8
-------------
-------------

7-7-7-5-5-4-7          4-5-7-5---4-5
-------------            --------------
-------------            --------------
             και μετά πάλι απ την αρχή


(Εννοείται πως αν χρειάζεται διορθώσεις μη διστάσετε να τις επισημάνετε)
καλό παίξιμο


Τίτλος: Απ: Παρτιτούρες για Μπαγλαμά Τζουρά 3χορδο μπουζούκι...
Αποστολή από: thodoris στις Φεβρουάριος 15, 2011, 09:47:50 πμ
   Ακόμα ένα από τα πολύ ωραία του Μάρκου

     Ο Χασάπης

   Μουσική/Στίχοι : Μάρκος Βαμβακάρης

  Εισαγωγή :

 1η :----2--3------2--3------2--3---3---3---3--5--7-------5--7------5--7------7--
 2η :-5---------5---------5----------5---5-------------8---------8---------8---8--

 1η :-0---------0---------0---------7---7------5--7--5--5--3--3--2--2--0--0-------0--
 2η :----7--8------7--8------7--8---8---8---8----------------------------------0------

 1η :----2--3------2--3------2--3---3---3---3--5--7--5--7--5--7--5--7--5--7---3-
 2η :-5---------5---------5----------5---5----------------------------------------

 1η :----2--3------2--3------2--3---3---3---3--5--7--5--5--3--3--2--2--0--0-------0--
 2η :-5---------5---------5----------5---5--------------------------------------0------

 Στίχοι :

 1η :-0--0--2--3---0---2---3---5---7---5-------7---5---3--2--0---
 2η :---------------------------------------8----------------------

 1η :-----3-------3---7---10---9---10---12---13---12---10---9---12---10---
 2η :-3-------3--------------------------------------------------------------

 1η :----------------------5---7---5------5---7---5---3---2--3--0---
 2η :-8---7---5---7---8---------------8-----------------------------


Τίτλος: Απ: Παρτιτούρες για Μπαγλαμά Τζουρά 3χορδο μπουζούκι...
Αποστολή από: thodoris στις Φεβρουάριος 15, 2011, 10:16:07 πμ
  κ ακόμα ένα...

   Πολίτισσα

  Μουσική/Στίχοι : Μάρκος Βαμβακάρης
 
 Εισαγωγή :

 1η :----------9--10------------------------5---------------
 2η :-10--11----------10--11--8--10--6--8-----6--8--5--3--

 1η :----------9--10------------------------5--6-9--6--5-----5--
 2η :-10--11----------10--11--8--10--6--8----------------6-----

 1η :-5--6--9--10-------------------------5---------------
 2η :---------------10--11--8--10--6--8------6--8--5--3--

 1η :-0--1--3--4---3--1--1--0--0-----------------
 2η :------------------------------3--3-------3---
 3η :-------------------------------------5-------

 Στίχοι :

 1η :-----5----6---5-6--8--5----6---5---3---1---0--1--5--3-5-3--1--1--0-1-0----------
 2η :-3-------------------------------------------------------------------------3--3----

 1η :-----0--1--3---4--3--1---0--1--3----1---0--1--3--4--7--4--3--1--1--0-------
 2η :-3-----------------------------------------------------------------------3----

 1η :-----5----6---5-6--8--5----6---5---3---1---0--1--5--3-5-3--1--1--0-1-0----------
 2η :-3--------------------------------------------------------------------------3--3---

 1η :-----0--1--3---4--3--1---0--1--3----1---0--1--3--4--7--4--3--1--1--0-------
 2η :-3-----------------------------------------------------------------------3----

 1η :-----0--1--3---4--3--1---0--1--3----1---0--1--3--4--7--4--3--1--1--0-------
 2η :-3-----------------------------------------------------------------------3----


Τίτλος: Απ: Παρτιτούρες για Μπαγλαμά Τζουρά 3χορδο μπουζούκι...
Αποστολή από: thodoris στις Φεβρουάριος 15, 2011, 10:48:30 πμ

  Το Σακάκι

 Μουσική/Στίχοι : Ανέστης Δελιάς

 Εισαγωγή Χ2:

 1η :-----3--5--2--3--1--2--------7--5--7-------------5----------------------5--4--7---5-----
 2η :-3----------------------3--------------8---7---8-----7--8--6--7--3---3------------------
 3η :-5----------------------------------------------------------------------------------------

 1η :-5---5--4--5---7---8---5---7--------------5-----------------------------------
 2η :--------------------------------8---7---8-----7--8--6--7--3--------3-----3----
 3η :-----------------------------------------------------------------5-----5-------

 Στίχοι :

 1η :-----10---9---10---12---10---8---8---7---7---5---5---4---7----5----5---
 2η :-10-----------------------------------------------------------------------

 1η :-----10---9---10---12---10---8---8---7---7---5---5---4---7----5----5---
 2η :-10-----------------------------------------------------------------------

 1η :-5--5---4---5---7---8---5---7--------------5--------------5---4---7---5----
 2η :---------------------------------8---7---8-----7---6---3--------------------

 1η :-5--5---4---5---7---8---5---7--------------5---------------------------
 2η :---------------------------------8---7---8-----7---3------3-------3----
 3η :--------------------------------------------------------5------5-------


Τίτλος: Απ: Παρτιτούρες για Μπαγλαμά Τζουρά 3χορδο μπουζούκι...
Αποστολή από: Nikos Papanikolaou στις Φεβρουάριος 17, 2011, 07:35:53 μμ
Vlepo to forum 2 ores exete kanei apistefti douleia,bravo se olous.
Tha ithela na do to "tria roumpagiat" kai to "Zeimpekiko" tou savvopoulou an einai efkolo.

Euxaristo ek ton proteron,kai pali sigxaritiria!!!


Τίτλος: Παρτιτούρες για Μπαγλαμά Τζουρά 3χορδο μπουζούκι...
Αποστολή από: Μάκης στις Φεβρουάριος 18, 2011, 08:19:00 μμ
Μάγκες συγχαρητήρια! Πολύ καλή δουλειά !!
 Μια παραγγελιά αν γίνεται  πλήζ !!! :  ΔΩΜΑΤΙΟ ΣΤΟ ΑΜΣΤΕΡΝΤΑΜ  - Νικόλας Άσιμος

ευχαριστώ !


Τίτλος: Απ: Παρτιτούρες για Μπαγλαμά Τζουρά 3χορδο μπουζούκι...
Αποστολή από: Μ(Α)ΡΙΟς στις Φεβρουάριος 19, 2011, 12:39:26 πμ
Καλώς με βρήκατε...
Αυτό που ξέρετε είναι ότι είμαι ο γνωστός "πρήχτης" στις δραστηριότητες...
Αυτό που δεν ξέρετε όμως είναι ότι τριχορδιάζομαι και εγώ με τη σειρά μου,με το νταλγκά μου,με τη μαγκιά μου και με τη πένα μου...
 ;) ;) ;)
Λοιπόν επειδή τα πολλά λόγια είναι άργιλος,δηλαδή χώμα άχρηστο,συνεισφέρω και εγώ τον επιούσιο!!!

Ξεκινάω ευθύς με την παραγγελιά του <<Μάκη>>


"ΔΩΜΑΤΙΟ ΣΤΟ ΑΜΣΤΕΡΝΤΑΜ" του Νικόλα Άσιμου


ΕΙΣΑΓΩΓΗ:

1η :--77 -- 55 -- 44 -- 2 -- 222 222 -- 55 -- 44 -- 22 -- 0 -- 0000
2η :-------------------------------------------------------------345
3η :-------------------------------------------------------------

1η :--77 -- 55 -- 44 -- 2 -- 222 012 --------------0
2η :---------------------------------00--22--33---
3η :-----------------------------------------------

ΛΟΓΙΑ:

           Δω     μα     τι    ο  Δω  ματι    ο     στο    αμ  στερ  νταμ
1η :-----7-----5----4---2---0---24---5----5----4----2---0-
2η :------------------------------------------------------
3η :------------------------------------------------------

(ακριβώς το ίδιο ---> 2 φορές το παίζουμε!!!)

          Χα     σις    και  μια   Χα   σις   και   μια   γυ    ναι   κα
1η :----7-----5----4---2---0---24---5----5----4----2---0-
2η :-----------------------------------------------------
3η :-----------------------------------------------------


       Γρου     ζου  ζης   ησ  ουν  αν  θρω  πε
1η :---0-----2----4----5---5---7---4----2---
2η :-----------------------------------------
3η :-----------------------------------------


(ανταπόκριση):
1η :---------------------------------------
2η :---0235---7875---7579---10-------------
3η :---------------------------------------

       και    σου    δι    να   και   σου  κλε   βα  πα  κε  τα
1η :-------------------------------------------------
2η :--10---10---10---9---9---79---10---10---9--7--5
3η :-------------------------------------------------

(αυτό ΕΓΩ μετά την ανταπόκριση το παίζω στη δεύτερη χορδή,ακούγεται πιο
 μερακλίδικα.Από εκεί και πέρα αν δεν σας αρέσει μεταφέρετε το,στην πρώτη χορδή!
 Ο καθένας με τη μαγκιά του και την όρεξή του)
 
 
Και ΞΑΝΑ "ΕΙΣΑΓΩΓΗ" και "ΕΠΟΜΕΝΗ ΣΤΡΟΦΗ" και τα λοιπά...

*** Όπου ένας αριθμός ---> ΜΙΑ ΝΟΤΑ
*** Όπου δύο αριθμοί μαζί--->ΔΥΟ ΝΟΤΕΣ(Η ΠΕΝΑ ΣΑΣ ΕΝΑΛΛΑΞ : ΚΑΤΩ-ΠΑΝΩ)
*** Όπου τρείς αριθμοί μαζί--->ΤΡΕΙΣ ΝΟΤΕΣ(Η ΠΕΝΑ ΣΑΣ ΕΝΑΛΛΑΞ : ΚΑΤΩ-ΠΑΝΩ-ΚΑΤΩ)
*** Όπου τέσσερις αριθμοί μαζί--->ΤΕΣΣΕΡΙΣ ΝΟΤΕΣ(Η ΠΕΝΑ ΣΑΣ ΕΝΑΛΛΑΞ : ΚΑΤΩ-ΠΑΝΩ-ΚΑΤΩ-ΠΑΝΩ)


Ελπίζω να έγινα αντιληπτός και κατανοητός για πρώτη φορά

Καλώς με βρήκατε και πάλι αλάνια !!!!

Εις το επανιδείν!!!




Τίτλος: Απ: Παρτιτούρες για Μπαγλαμά Τζουρά 3χορδο μπουζούκι...
Αποστολή από: χρηστος στις Φεβρουάριος 19, 2011, 10:34:25 πμ
καλημερα σας ,,,μια ερωτηση γιατι εχω μπερδευτει παααααρα πολληηηηη,,,,
οι παυλες τι ρολο βαρανε ,,με μπερδευουν ,,ειναι χτυπηματα της χορδης η
χρονος παυσης ???
προσπαθω να βγαλω μερικα κοματια και μπερδευομαι ,,
αν μπορειτε να μου το εξηγησετε διοτι εχω μαθει αλλιως να διαβαζω την ταμπλατουρα ,,
π.χ 5 5 5 (3) (3) 10 10 10 ((12))((12)) καπως ετσι ,,το συστημα

-----9--7-------12------10 δεν το εχω πιασει καλα ,,


Τίτλος: Απ: Παρτιτούρες για Μπαγλαμά Τζουρά 3χορδο μπουζούκι...
Αποστολή από: ΜΑΚΗΣ στις Φεβρουάριος 19, 2011, 02:42:55 μμ
Μάριε δεν ξέρω αν είσαι πρηχτης
Σίγουρα όμως είσαι πρώτος μάγκας
Και πολύ μα πάρα πολύ αντιληπτός!!!
Καλώς σε βρήκαμε λοιπόν και καλή συνέχεια ;)

Και μια παραγγελία, μια και αρχίσαμε…
 το "Πορτοφόλι" του Μάρκου?


Τίτλος: Απ: Παρτιτούρες για Μπαγλαμά Τζουρά 3χορδο μπουζούκι...
Αποστολή από: punkpagour στις Φεβρουάριος 19, 2011, 03:12:29 μμ
Αρκαντάσια καλησπέρα, τα γνωστά συχαρίκια για την συνδιαμόρφωση/
να ζητήξω μια βοήθεια πάνω σε ένα τραγούδι του Θ.Παπακωνσταντίνου που το δουλεύω μια βδομάδούλα χαλαρά αλλά δεν με εικανοποιεί το άκουσμα? Το τραγούδι είναι το όνειρο και κάθε βοήθεια θα αγκαλιαστεί με αγάπη.


Τίτλος: Απ: Παρτιτούρες για Μπαγλαμά Τζουρά 3χορδο μπουζούκι...
Αποστολή από: Μ(Α)ΡΙΟς στις Φεβρουάριος 19, 2011, 04:13:39 μμ
ΠΑΡΑΓΓΕΛΙΑAAA κατέφθασε για το φίλο ΜΑΚΗ...

Μάγκες μην το δείτε τεράστιο και πανικοβληθείτε..
Επανάληψη είναι το περισσότερο!!!


"ΤΟ ΠΟΡΤΟΦΟΛΙ" του Μάρκου Βαμβακάρη

ΕΙΣΑΓΩΓΗ

1η :---6 7 9 10---12 9 10 7---9---16 16 16 16 16 16
2η :--------------------------------------------
3η :--------------------------------------------

1η :---6 7 9 10---12 9 10 7---9---16 16 16 16 16 16--16
2η :-----------------------------------------------
3η :-----------------------------------------------

1η :---6 7 9 10---12 9 10 7---9---16 16 16 16 16 16
2η :--------------------------------------------
3η :--------------------------------------------

1η :---6 7 9 10---12 9 10 7---9---9---9----9
2η :-----------------------------9---9-----
3η :---------------------------------------




ΛΟΓΙΑ
      Στο   κο σμο το ση   με ρι  νο αυ  το το    ξε ρουν  οοοοοολοι
1η :--------0---4 2---4 0---2 4---0 0------------------
2η :-------2---------------------------3 2 0---2--2--2
3η :---4----------------------------------------------

       Η   δυ να  μη στον αν θρω πο ει  ναι το  ποο ρτο φο λιιιιιιιιιιι
1η :--------0---4 2---4 0---2 4---0 0------------------
2η :-------2---------------------------3 2 0---2--2--2
3η :---4----------------------------------------------
(ακριβώς τα ίδια αυτά τα δύο)


       Η   δυ να    μη στον αν θρω πο ει  ναι το  ποο ρτο φο λιιιιιιιιιιι
1η :---4---5 4---5 7---4 5---2 4---0 2---------4---4---4
2η :-----------------------------------3 2 0-----------
3η :---------------------------------------------------

        Στο  κο σμο το ση  με ρι   νο αυ  το το  ξε ρουν   οοοοοολοι
1η :---4---5 4---5 7---4 5---2 4---0 2-------------------
2η :-----------------------------------3 2 0---2---2---2
3η :---------------------------------------------------




ΜΕΣΑΙΟ ΘΕΜΑ

1η :--16--17 19 17 16--17 16 17 19---16 17 16 17--14 16 14 16--12 14 12 14--10 9 7
---16--16--16
2η :
3η :


1η :--16--17 19 17 16--17 16 17 19---16 17 16 17--14 16 14 16--12 14 12 14--10 9 7
---9--9--9
2η :
3η :
(ακριβώς το ίδιο απλά την πρώτη φορά καταλήγει σε ΦΑ# και τη Δεύτερη σε ΣΙ)



ΚΑΙ ΞΑΝΑ ΑΠΟ ΤΗΝ ΑΡΧΗ...

Η Σειρά του τραγουδιού πάει ως εξής :
ΕΙΣΑΓΩΓΗ (ΜΙΑ ΦΟΡΑ)
ΛΟΓΙΑ
ΜΕΣΑΙΟ ΘΕΜΑ(ΜΙΑ ΦΟΡΑ)
ΕΙΣΑΓΩΓΗ
ΛΟΓΙΑ
ΜΕΣΑΙΟ ΘΕΜΑ(ΜΙΑ ΦΟΡΑ)
Κ.Τ.Λ

*** Όπου ένας αριθμός ---> ΜΙΑ ΝΟΤΑ
*** Όπου δύο αριθμοί μαζί--->ΔΥΟ ΝΟΤΕΣ(Η ΠΕΝΑ ΣΑΣ ΕΝΑΛΛΑΞ : ΚΑΤΩ-ΠΑΝΩ)
*** Όπου τρείς αριθμοί μαζί--->ΤΡΕΙΣ ΝΟΤΕΣ(Η ΠΕΝΑ ΣΑΣ ΕΝΑΛΛΑΞ : ΚΑΤΩ-ΠΑΝΩ-ΚΑΤΩ)
*** Όπου τέσσερις αριθμοί μαζί--->ΤΕΣΣΕΡΙΣ ΝΟΤΕΣ(Η ΠΕΝΑ ΣΑΣ ΕΝΑΛΛΑΞ : ΚΑΤΩ-ΠΑΝΩ-ΚΑΤΩ-ΠΑΝΩ)



Ελπίζω να βοήθησα
Καλές πενιές Ρεμπετοσύντροφοι Τριχορδίτες!!!



Τίτλος: Απ: Παρτιτούρες για Μπαγλαμά Τζουρά 3χορδο μπουζούκι...
Αποστολή από: alterna στις Φεβρουάριος 20, 2011, 03:06:37 μμ
Marios άψογος..
Φοβερή επιλογή και πολύ καλή απόδοση..


Τίτλος: Απ: Παρτιτούρες για Μπαγλαμά Τζουρά 3χορδο μπουζούκι...
Αποστολή από: ΜΑΚΗΣ στις Φεβρουάριος 20, 2011, 04:09:00 μμ
ΠΑΡΑΓΓΕΛΙΑAAA κατέφθασε για το φίλο ΜΑΚΗ...


Ευχαριστώ πολύ για την άμεση ανταπόκριση
Αλλά και για την άψογη και υποβοηθητική παρουσίαση!!!


Τίτλος: Απ: Παρτιτούρες για Μπαγλαμά Τζουρά 3χορδο μπουζούκι...
Αποστολή από: fyllis kyriakos στις Φεβρουάριος 20, 2011, 07:39:49 μμ

Χαιρετω και συγχαιρω όλους εσας για τους θησαυρους που μας χαριζετε.Να’στε καλα.Μια χαρη θα ηθελα να ζητησω κι’εγω.
Το< Σαββατοβραδο> Στίχοι: Τάσος Λειβαδίτης Μουσική: Μίκης Θεοδωράκης Πρώτη εκτέλεση: Στέλιος Καζαντζίδης




Τίτλος: Απ: Παρτιτούρες για Μπαγλαμά Τζουρά 3χορδο μπουζούκι...
Αποστολή από: Rafael στις Φεβρουάριος 21, 2011, 11:17:02 πμ
Σας ευχαριστώ για το σπουδαίο υλικό που ανεβάζετε.

Έχει κανείς το Μανα που ζω του Κορακάκη και το Κάτι μου κρύβεις του Περίδη ?


Τίτλος: Απ: Παρτιτούρες για Μπαγλαμά Τζουρά 3χορδο μπουζούκι...
Αποστολή από: Κωνσταντίνος στις Φεβρουάριος 23, 2011, 01:14:05 πμ
ΜΠΡΑΒΟ ΡΕ ΠΑΙΔΙΑ..ΜΕΤΑ ΑΠΟ ΠΟΛΥ ΚΑΙΡΟ ΑΝΑΚΑΛΥΨΑ ΚΑΤΙ ΠΟΥ ΜΟΥ ΑΡΕΣΕΙ ΚΑΙ ΠΙΣΤΕΥΩ ΑΞΙΖΕΙ... ΕΤΣΙ ΓΙΑΤΙ Η ΓΝΩΣΗ ΠΡΕΠΕΙ ΝΑ ΔΙΑΔΙΔΕΤΑΙ... ΘΕΡΜΗ ΠΑΡΑΚΛΗΣΗ ΜΗΠΩΣ ΕΧΕΙ ΒΓΑΛΕΙ ΚΑΝΕΙΣ ΤΟ "ΚΟΚΑΙΝΟΠΟΤΗΣ" ή "ΝΑ ΓΙΑΤΙ ΦΟΥΜΑΡΩ ΚΟΚΑΙΝΗ" ? ΚΑΙ ΠΑΛΙ ΚΑΛΗ ΣΥΝΕΧΕΙΑ...


Τίτλος: Απ: Παρτιτούρες για Μπαγλαμά Τζουρά 3χορδο μπουζούκι...
Αποστολή από: Σωτήρης στις Φεβρουάριος 23, 2011, 12:01:20 μμ
SUPER(O)MARIOS


Τίτλος: Απ: Παρτιτούρες για Μπαγλαμά Τζουρά 3χορδο μπουζούκι...
Αποστολή από: nikkortis στις Φεβρουάριος 23, 2011, 01:20:36 μμ
μπραβο ρε παιδια... Μ(Α)ΡΙΟΣ φοβερο! το εχεις βγαλει αψογα... αντε να ανεβαζουμε και αλλα, ας μην ειναι και Μαρκος!  ;D προσπαθω να βγαλω το βουνο με το βουνο δεν σμιγει.... εαν τα καταφερω θα το ανεβασω. εκτος και αν θελετε να ανεβασω οτι εχω βγαλει μεχρι τωρα... αλλα ειναι λιγο!
δωστε πραμα στον ΛΑΟ


Τίτλος: Απ: Παρτιτούρες για Μπαγλαμά Τζουρά 3χορδο μπουζούκι...
Αποστολή από: dasf στις Φεβρουάριος 23, 2011, 01:39:23 μμ
Κατι μου κρυβεις - Ορφεας Περιδης

eisagwgh

8-10-8-7-5-5-12

10-12-10-8-7-5-( 8 )-5-7-5

( 8-6-5-6-5 )

8-7-5-7-5

15-13-12-13-12

Logia

( 8-6-5-6-5 )

( 5 )-( 6 )-( 8 )-5-7-8-7-5

( 8 )-( 6 )-( 5 )-( 6 )-( 6 )-( 8 )-( 8 )-5-7-8-10-7

( 8-6-5-6-5 )

( 5 )-( 6 )-( 8 )-5-7-8-7-5

( 8 )-( 6 )-( 5 )-( 6 )-( 6 )-( 8 )-( 8 )-5-7-( 8 )-( 6 )-( 5 )


Melodia pou miazei me isagogi

8-10-8-7-5-5-12

10-12-13-15-12-10-8


Refren

7-8-10-12-10-8-7-5-( 8 )-5-7-{[8-8-8-8-8-8-8-8-10-10-10-10-7-7-7-7]}

( 8 )-5-7-8-7-5-( 8 )-( 6 )-( 3 )-( 6 )-( 8 )-5-7-( 8 )-( 6 )-( 3 )


oi () einai notes stin deuteri xordi KAI i agkili einai tremoulo (empisteutite kalitera to diko sas auti sto tremoulo)


Τίτλος: Απ: Παρτιτούρες για Μπαγλαμά Τζουρά 3χορδο μπουζούκι...
Αποστολή από: dasf στις Φεβρουάριος 23, 2011, 03:15:20 μμ
xatzikiriakio

eisagwgh

0-2-3-3-2-0

5-7-4-7-5

5-7-8-8-7-5
 
12-14-11-14-12

7-8-9-10-10-8-7-( 10 )-( 8 )-( 7 )-( 5 )-( 4 )-( 5 )-( 7 )-( 8 )-( 7 )-( 8 )-( 10 )-7-8-
( 10 )-( 8 )-( 7 )-( 5 )

0-2-3-3-2-0

5-7-4-7-5

5-7-8-8-7-5
 
12-14-11-14-12

7-8-9-10-10-8-7-( 10 )-( 8 )-( 7 )-( 5 )

7-8-7 -( 10 )-( 8 )-( 7 )-( 5 )-( 0 )-( 5 )

Logia

15-14-12-11-12-14-11-12                    apantisi    (12-13-12-13-12-13)-11-12

15-14-12-10-10-8-7

7-8-7-( 10 )-( 8 )-( 10 )-7

7-8-9-10-12-10-8-12

8-7-( 10 )-( 8 )-( 7 )-( 8 )-( 10 )-7

7-8-7-( 10 )-( 8 )-( 10 )-7

7-8-9-10-12-10-8-12

8-7-( 10 )-7-( 10 )-( 8 )-( 7 )-( 10 )-( 8 )-( 7 )-( 5 )

7-8-7 -( 10 )-( 8 )-( 7 )-( 5 )-( 0 )-( 5 )


autes pou einai se () einai notes stin deuteri xordi.

oi portokalies notes kalitera na pezonte diples(kai grigora) allios mones kai arges. oi ipogramismenes pio grigora.




Τίτλος: Απ: Παρτιτούρες για Μπαγλαμά Τζουρά 3χορδο μπουζούκι...
Αποστολή από: matzore στις Φεβρουάριος 23, 2011, 11:53:55 μμ
den paizi rolo an ta tragoudia exoun anewi
mpori ta idia tragoudia na eine se ali diaskevi
dikimou gnomi wale oti mporis


Τίτλος: Απ: Παρτιτούρες για Μπαγλαμά Τζουρά 3χορδο μπουζούκι...
Αποστολή από: marKiS στις Φεβρουάριος 24, 2011, 12:49:35 μμ
Σωστα. ::)


Τίτλος: Απ: Παρτιτούρες για Μπαγλαμά Τζουρά 3χορδο μπουζούκι...
Αποστολή από: Tzanis1234 στις Φεβρουάριος 25, 2011, 10:04:03 μμ
Καλησπέρα, άλλη μια φορά έχω γράψει είχα ανεβάσει παλιά τις βεργούλες του Μάρκου. Ψάχνω να βρω τη "πριγκηπέσσα" με εκτέλεση του Μάλαμα αν γίνεται. Έχει ανέβει πιο παλιά αλλά με άλλη εκτέλεση. Ευχαριστώ


Τίτλος: Απ: Παρτιτούρες για Μπαγλαμά Τζουρά 3χορδο μπουζούκι...
Αποστολή από: dasf στις Φεβρουάριος 26, 2011, 10:12:49 μμ
psaxno to "tifles elpides" apo Melina Kana an to kserei kaneis as to anebasei. euxaristo!!


Τίτλος: Απ: Παρτιτούρες για Μπαγλαμά Τζουρά 3χορδο μπουζούκι...
Αποστολή από: Ilias Fekas στις Μάρτιος 02, 2011, 07:49:56 μμ
Χαιρετώ σας. Αν μπορεί κάποιος ας ανεβάσει το "ΕΦΟΥΜΕΡΝΑΜΕ ΕΝΑ ΒΡΑΔΥ" του Μάρκου. Ευχαριστώ εκ των προτέρων.


Τίτλος: Απ: Παρτιτούρες για Μπαγλαμά Τζουρά 3χορδο μπουζούκι...
Αποστολή από: stelioso στις Μάρτιος 02, 2011, 10:26:04 μμ
Πω πω ρε μαγκες μα τι κηπος ειναι εδω!!!!

Αν γνωριζει καποιος να ανεβασει την κομματαρα "το φιλι δεν ειναι κριμα" μετα της εισαγωγης της

http://www.youtube.com/watch?v=tY1xuOIprGg&feature=related


Τίτλος: Απ: Παρτιτούρες για Μπαγλαμά Τζουρά 3χορδο μπουζούκι...
Αποστολή από: Βαγγέλης στις Μάρτιος 02, 2011, 11:29:14 μμ
το φιλι δεν ειναι κριμα-να παμε για τη βουλα 1939 με τον στρατο παγιουμτζη κ τον τσιτσανη   σε δρομο ρε μινορε κ ρε μινορε αρμονικο 
15 17 19 15 19 17 19 15 19 17 19 15 19 17 19 15 17 19 17 17 15 15 14 14 12 12 12 14 15 17 19 19
15 17 19 15 19 17 19 15 19 17 19 15 19 17 19 15 17 19 17 17 15 15 14 14 12 12 12 12 12 12 12 12 12 12 14 11 14 12
7      8     11    12     12      8      11     12
προχτεσ   α      ντα   μω      θη     κα     με
με   μια    φι     λε     να     δου    ου     λα
10     10   12     14    10     12     8        7      5     7      8      10
κ       σε    μια    βα    ρκα   μπη   κα      με     τα    δυο  μα     ζι
11     8     7       5       8      7     [8]     [7]      [5]
να     πα   με     για     τη     βου   ου     ου       λα
[5]    [8]    7      7      [8]     5     [7]      [8]     [8]
κ      μασ   φω    ω     να     ζε     το       κυ     μα
[5]     [8]    7      7      [8]    5     [7]      [5]      [5]
το      φι     λι     ι          δεν ει       ναι    κρι      μα

                         


Τίτλος: Απ: Παρτιτούρες για Μπαγλαμά Τζουρά 3χορδο μπουζούκι...
Αποστολή από: stelioso στις Μάρτιος 02, 2011, 11:46:38 μμ
Βαγγέλη σε υπερ ευχαριστώ απο καρδιάς για την ανταποκριση.
εψαχνα καιρό για το κομματι αυτό.
Πραγματικα αυτο το φορουμ ειναι θησαυρός ειδικά για εμένα που μαθαινω εντελώς μόνος μου. Μπράβο σε όλους.
Ελπίζω να προχωρήσω και εγώ και να μπορέσω καποτε να ανταποδώσω



Τίτλος: Απ: Παρτιτούρες για Μπαγλαμά Τζουρά 3χορδο μπουζούκι...
Αποστολή από: Nikos Papanikolaou στις Μάρτιος 03, 2011, 05:08:27 πμ
Ισχύει.Πλούτος!!Αύριο θα αγοράσω το πρώτο μου μπουζούκι.Το ήθελα καιρό,αλλά δεν είχα υλικό μιας και μαθαίνω μόνος.Μόλις είδα το φόρουμ,πήρα την απόφαση μέσα σε 5 δευτερόλεπτα  :)
Aν έχει κάποιος αυτή την εκτέλεση,ας την ανεβάσει.
http://www.youtube.com/watch?v=E0wAprhqqB8

Μ'αεροπλάνα και βαπόρια.

Ευχαριστώ για όλα


Τίτλος: Απ: Παρτιτούρες για Μπαγλαμά Τζουρά 3χορδο μπουζούκι...
Αποστολή από: Kostas112gr στις Μάρτιος 03, 2011, 08:18:27 μμ
Γεια σας παιδιά.Έχει κανείς ταμπλατούρα για το δεν ξανακάνω φυλακή(ο καπετανάκης);
Να το τραγούδι:
[youtube]http://www.youtube.com/watch?v=QvnK497ZomA[/youtube]


Ευχαριστώ...


Τίτλος: Απ: Παρτιτούρες για Μπαγλαμά Τζουρά 3χορδο μπουζούκι...
Αποστολή από: ΓΕΩΡΓΙΟΣ στις Μάρτιος 04, 2011, 03:48:38 μμ
 Γεια σασ. θα γραψω και εγω ενα μικρό ταξίμι σε ΡΕ ΧΙΤΖΑΖ. είναι
10-12    12-12-12--12-12-14-12-10-8-8-7-8  7-8-7

12-10-8-7-7-5-7.  Αυτό ειναι ενα μικπο ταξιμακι που εγω αρχιζω τα ματοκλαδα. Παει βεβαια και σε αλλα τραγουδια
αλλα θα γραψω αλλη φορα. ξερω και αλλα πολλα αλλη ωρα θα σασ γραψω ταξιμι για την ευδοκια και για πολλουσ δρομουσ ουσακ και σαμπαχ και για τον πειραιωτικο που μου αρεσει πολλη.
εγω παιζω τετραχορδο εδω και ενα χρονο περιπου παω σε δασκαλο οχι σε ωδειο αλλα σε ενα επαγγελματια
μπουζουξη που ειναι και φιλοσ μου, και κανω καθε εβδομαδα ενα διωρο η τριωρο αναλογα παιζω καμια δεκαρια τραγουδια αλλα τα παιζω με συχορδιεσ με κιθαρα με τραγουδιστεσ δηλαδη κανονικα οπωσ ακουγεται στα κεντρα
τωρα αρχισαμε ταξιμια και τσιφτετελια.τα γραφω αυτα και αν υπαρχει ανταποκριση για τα ταξιμια και τα θελεται θα σασ ανεβασω οτι θελεται. γεια σασ.



Τίτλος: Απ: Παρτιτούρες για Μπαγλαμά Τζουρά 3χορδο μπουζούκι...
Αποστολή από: kosgia alaniaris στις Μάρτιος 05, 2011, 11:09:01 μμ
Εννοείται φιλάρα ότι θέλουμε ταξιμάκια και νανένα τσιφτετελέκι δε μας χαλάει! Δώσε!!!


Τίτλος: Απ: Παρτιτούρες για Μπαγλαμά Τζουρά 3χορδο μπουζούκι...
Αποστολή από: Κατσαούνης Πάρης στις Μάρτιος 06, 2011, 06:31:51 μμ
Παιδιά να βάλουμε ακόμα ένα τραγουδάκι στη συλλογή.
Μπορεί να θέλει ακόμα κάποιες διορθώσεις μιας και το μετέτρεψα απο ταμπλατούρα τετράχορδου μπουζουκιού.

Οι νότες στις αγκύλες παίζονται με μία πενια σαν συγχορδία

Με σκότωσε γιατί την αγαπούσα
   Μουσική Χ. Νικολόπουλος
   Στίχοι Λ. Παπαδόπουλος

[2]-----[2]---[2]------[2]-----[2]---[2]—-[2]-------2-----------------7---9----12----14-------12---14
[2]-----[2]---[2]------[2]-----[2]---[2]---[2]-------2---7---9---10--------------------------------------
  • -------------2---------2-------------2--------------------------------------------------------


12—12—12—14—16—12—14—12—10---9-----------------------------------7---9----12---14-----14----12---14
----------------------------------------------------------12---10---9----7---9---10-------------------------------------------
-----------------------------------------------------------------------------------------------------------------------------------


12-12-12-14-16---12---14--------------10---10---9----7------14-------12----10-9---7---------------------
----------------------------------------------------------------------------------------------------10-----9----7---
----------------------------------------------------------------------------------------------------------------------


-------------------------------------------------------------------------------------------------------12------
-----7---9---7---9---7---9---10-12-10-9—10----10-----12-10---9-----10-9---7---9---7----------7—
------------------------------------------------------------------------------------------------------------------


Λόγια
---9---9--------------------------------------------0---------------------------12---12—11—
-----------10-----7-------10-------9-----7---7------------7------7------------------------------
------------------------------------------------------------------------------------------------------


--9-----12-------11---9—11---9----------9----9-12-14-12----10---10---10---9-----7-------14—
---------------------------------------12------------------------------------------------------------------
-------------------------------------------------------------------------------------------------------------


--12----10---9--------------------------------------------------------------------------------------------------7-------
-------------------12-------10---9---10---12---9---10---7------------7----7----7----9----10-----------------10---
----------------------------------------------------------------------------------------------------------------------------


----------------------12-------------------------------7---9---12---14-----12---14-------12-12-12-14-16---12---
----9---7---9---7----------7----------7---9---10----------------------------------------------------------------------
---------------------------------------------------------------------------------------------------------------------------


---14---14---14---14-----12-------14-----16----14---14---12---14----12-10-9-------14---14---14---
------------------------------------------------------------------------------------------------------------------
------------------------------------------------------------------------------------------------------------------


---12-------14-------11---9---11---9----------9----9—12-14-12----10---10---10---9----7------14----
--------------------------------------------12-------------------------------------------------------------------
------------------------------------------------------------------------------------------------------------------


---12----10---9---------------------------------------------------------------------------------------------
---------------------12------10---9---10---12---9---10---7----------7----7----9----10-----12----10-
---------------------------------------------------------------------------------------------------------------


---------------------12------------------------------------------------------------7---9----12---
---9---7—9—7-----------7------------7-------------7---------------9---10-------------------
----------------------------------------------------------------------------------------------------


---14----14---12---14-------12—12—12—14—16---12-----14--
---------------------------------------------------------------------------
---------------------------------------------------------------------------

Με σκότωσε γιατί την αγαπούσα
Γιατί την είχα σα μικρό παιδί
Κι΄όλα τα λάθη της τα συγχωρούσα
Πικρή στιγμή μαζί μου να μη δεί.

Ρεφρέν
Τώρα γυρνά παντού και με δικάζει
Λέει πως ήμουν ένοχος εγώ
Πές ότι θές καρδιά μου δε πειράζει
Ακόμα μια φορά σε συγχωρω.

Με σκότωσε γιατί την αγαπούσα
Γιατί την είχα πάντοτε ψηλά
Γιατί μεσά στα μάτια τη κοιτούσα
Για να τη βλέπω μόνο να γελά.

Ρεφρέν
Τώρα γυρνά παντού και με δικάζει
Λέει πως ήμουν ένοχος εγώ
Πές ότι θές καρδιά μου δε πειράζει
Ακόμα μια φορά σε συγχωρω.


Τίτλος: Απ: Παρτιτούρες για Μπαγλαμά Τζουρά 3χορδο μπουζούκι...
Αποστολή από: ΓΕΩΡΓΙΟΣ στις Μάρτιος 06, 2011, 11:12:09 μμ
καλησπέρα. ΤΑΞΙΜΙΑ  σε ΜΙ  ΟΥΣΑΚ  12-14    14-14-14   12(15-14-12-10-8)  (8-7-8)   (7-8-7)   
(10-8-8-7)    (8-7-7-7)     (5-7).

ΝΤΟ  ΝΙΑΒΕΝΤ  8-10       10-10-10    10-10    10-12-8     8-10-6     6-8-5     3-5-1-1   3      8-6-5(8-6-5-5-8)
    5     8-8-8   10   

ΛΑ ΜΙΝΟΡΕ   9    10-10    10-10   10-10   10     12   10-9-7   6(8-7-6)    (7-8)6-7    9    7-6-7    10     15
14-12-10     9-7-7-6      7

ΦΑ  ΜΙΝΟΡΕ    2-3-5    6-6-6-6      6-6-6-6   6-8-5-5(8)5-6-8      10-11-8-8-10-6-68-5-5-6-3-3-5
2-2-3-3 σερνει την χορδή   και πασ 5-3   3   3-2-3

7 σερνεισ το  χερι και πασ στο 10  και μετά στο 12   12-12-12    12-12   14-15-14-12   12-11-14-12
14-11-12     7-8    11-12-11(13-12)    (7-8-10)-7    (  10-10-8-8-7-7-5-5)      (3-3-3)    2
                                                                                                                         0   
                                                                                                                         0
                                                                                                                         0

με  αυτο το τελευταιο  ταξιμι παιξεται η ευδοκια.Αυτά τα συρτά που γίνονται θέλουν εξάσκηση  αλλα αμα παιχτούν  καλά   ακούγονται φοβερά.   Τα  άλλα ταξίμια  παιζονται όπωσ θέλει ο καθένασ αργά η γρήγορα  αλλά και να ακούγονται στο αυτί.
 Αυτά που γράφω για τα 12-12-12  μπορείτε αμα θέλεται να βαλεται παραπανω νότεσ  εσείσ θα κρίνεται πωσ θα ακουστεί.  καλό  βράδι. και άμα έχεται τον   ΕΒΑΛΕ Ο ΔΙΑΒΟΛΑΚΟΣ ΤΗΝ ΟΥΡΑ ΤΟΥ ΠΑΛΙ ΚΑΙ ΜΠΟΡΕΙΤΕ ΝΑ ΤΟ ΑΝΕΒΑΣΕΤΑΙ  ΕΙΝΑΙ ΚΑΛΟΔΕΧΟΥΜΕΝΟ.
 Οταν έχω χρόνο θα σασ ανεβάσω τα εξήσ τραγούδια.   ΤΑ  ΜΑΤΟΚΛΑΔΑ(ΜΠΙΘΙΚΩΤΣΗΣ)    ΜΑΥΡΑ ΜΑΤΙΑ  ΜΑΥΡΑ ΦΡΥΔΙΑ

ΕΥΔΟΚΙΑ   ΕΝΑ ΧΑΣΑΠΟΡΣΕΡΒΙΚΟ     ΡΟΛΟΙ ΚΟΜΠΟΛΟΙ(ΟΠΩΣ ΤΟ ΠΑΙΖΕΙ Ο ΠΑΠΑΔΟΠΟΥΛΟΣ)
ΝΥΧΤΩΣΕ ΧΩΡΙΣ ΦΕΓΓΑΡΙ  ΤΟΥ ΠΟΥΛΟΠΟΥΛΟΥ   τα οποια  ειναι τα τραγούδια οπωσ τα παίζουνε στισ εκτελεσεισ  τουσ δηλαδη επαγγελματικα.     
 


 





 
   
     
   


Τίτλος: Απ: Παρτιτούρες για Μπαγλαμά Τζουρά 3χορδο μπουζούκι...
Αποστολή από: kosta 747 στις Μάρτιος 07, 2011, 05:31:29 πμ
kalimera  magkes i wra einai 5 k 30 to proi epsaksa olo to foroum gia na vro tin alana (se estisan se mia gonia!!!)
kai den to vrika pouthena an mporei kapoios filos as to anevasei egw san asxetos pou eimai den mporw
akoma na sinisferw elpizo sto melon!!!!!!!! xilia efxaristw!!!!!!!!!!!!!!!!!!!!!!!!!


Τίτλος: Απ: Παρτιτούρες για Μπαγλαμά Τζουρά 3χορδο μπουζούκι...
Αποστολή από: matzore στις Μάρτιος 07, 2011, 07:26:21 μμ
pros kosta 747
tin ALANA tha tin wris stin
site www.enxordo.gr

 kai o filosmas O GIORGOS  an wali kapio wideaki tha woithouse poly  ???
i idea me ta taksimia einai kali
xereto olo to forum
giasas


Τίτλος: Απ: Παρτιτούρες για Μπαγλαμά Τζουρά 3χορδο μπουζούκι...
Αποστολή από: kosgia alaniaris στις Μάρτιος 08, 2011, 08:44:39 μμ
ΙΣΤΟΡΙΑ ΜΟΥ ΑΜΑΡΤΙΑ ΜΟΥ - ΒΟΗΘΕΙΑ
   COUPLE

             1η-2-2-0-2 - - 2- - -0- - -0-2-3-3-2- -( 2-0-3-2)- -2-2-0-2- -2- - -0- -0-5-3-2- -(2-1-3-2)
             2η - - - - - - - -  -3- - - - - - - - - - - - - - - - - - - - - - - - -  - 3- - - - - - - - - - - - - -
             3η- - - - - - - - - - - - - - - - - - - - - - - - - - - - - - - - - - - - - - - - - - - - - - - - - - -

            1η-2-3-2-0-0- -0- - -0-0- -2- - - - - - - -- -2-2-2-3-3-3-3-3-3-6-6-6-6- - - -7-7-7- - - - - -7-7-7-7
            2η- - - - - - - - -   3- - - -  - 3-2-0(0-2-3-0)- - - - - - - - - - - - - - - - - 8-7- - -  --7-7-7-
            3η- - - - - - - - - - - - - - - - - - - - - - - - - - - - - - - - - - -- - -- - - - - - - - - - - - - - - - - - --


            1η -(2-2-2-3-3-3-3-3-3-6-6-6-6-- - - 7-7-7---------7-7-7-7
            2η- - - - - - - - - - - - - - - - - -8-7-- - - - -7-7-7--- - --
            3η- - - ----- - - --- - - - - - - - - - - - - - - - - - - - - - -)


                REFREN

            1η-7-9-10- - -9-7- -5-3-5- -3-2- - -0- -2-3-5-3-2- -(2-1-3-2)
            2η- - - - - - - - - - - - - - - -- - - - - - - - - - - - - - - - - - -
            3η- - - - - - - - - - - - - - - - - - - - - - - - - - - - - - - - - - -


   1η-7-9-10- - -9-7- -5-3-5- -3-2- - -0- -0- - -2-0- - - - - 2-3
   2η- - - - - - - - - - - - - - - - - - - - - - - - - - - - -3-2-0-3-3
   3η- - - - - - - - - - - - - - - - - - - - - - - - - - - - - - - - - -

Ρε παίδες βρήκα αυτό το τραγούδι στο site, που το έψαχνα και πολύ καιρό,, αλλά νομίζω ότι τα σημεία που έχω κοκκινίσει δε βγαίνουν σωστά. μπορεί να βοηθήσει κάποιος;


Τίτλος: Απ: Παρτιτούρες για Μπαγλαμά Τζουρά 3χορδο μπουζούκι...
Αποστολή από: kosta 747 στις Μάρτιος 09, 2011, 04:28:55 μμ
pros kosta 747
tin ALANA tha tin wris stin
site www.enxordo.gr

 kai o filosmas O GIORGOS  an wali kapio wideaki tha woithouse poly  ???
i idea me ta taksimia einai kali
xereto olo to forum
giasas

           distixos den mporw na diavaso partitoura an mporei kapoios
na to vgalei se tamplantoura efxaristw poli!!!!!!!!!!!!!!!!


Τίτλος: Απ: Παρτιτούρες για Μπαγλαμά Τζουρά 3χορδο μπουζούκι...
Αποστολή από: alterna στις Μάρτιος 10, 2011, 12:39:50 μμ
Στα πεύκα και στα έλατα (Γνωστό και ως Τα νιάτα δεν τα χόρτασα)

Στίχοι: Χαράλαμπος Βασιλειάδης
Μουσική: Γιάννης Παπαϊωάννου



Εισαγωγή

-0--1---0---------0---0--1---0-----------0----1----3—3—3---0—1—1—1---------0-1-3-5-7

------------3-2-3-----------------3-2-3----------------------------------3---5-------------

---------------------------------------------------------------------------------------------


-0--1---0---------0---0--1---0-----------0----1----3—3—3---0—1—1—1-------0-1-3-0-1----0

------------3-2-3-----------------3-2-3----------------------------------3--5-------------3---

-----------------------------------------------------------------------------------------------


Λόγια

Τα νιάτα δεν τα χόρτασα…


-0—1—0------3---1---3—1---0---5-5-5----3—1---3---1—0---0----0—1—3-0-1----0--------

----------3--------------------------------------------------------------------3-----------

-------------------------------------------------------------------------------------------

δεν θέλω να πεθάνω…

-0—1—0------3---1---3—1---0---5-5-5----3—1---3---1—0---0----0—1—3-0-1----0--------

-----------3-------------------------------------------------------------------3-----------

--------------------------------------------------------------------------------------------

Μεσαίο θέμα

-0—1—0------3---1---3—1---0---5-5-5----3—1---3---1—0---0----0—1—3- -5--7----------

----------3--------------------------------------------------------------------------------

--------------------------------------------------------------------------------------------


σαν τον ανθό μαράθηκα…                                                       μανούλα μου..  

-7—8—9—10---8---10---7---5---7----3----1----3---1—0—0------10—9—8—7----------

---------------------------------------------------------------------------------------

---------------------------------------------------------------------------------------


και δεν μπορώ να γειάνω

-7—8—9—10---8---10---7---5---7----3----1----3---1—0—0------0----1—3—0---1-----0

------------------------------------------------------------------------------------3-----

------------------------------------------------------------------------------------------



Τίτλος: Απ: Παρτιτούρες για Μπαγλαμά Τζουρά 3χορδο μπουζούκι...
Αποστολή από: Nikos Papanikolaou στις Μάρτιος 12, 2011, 01:43:46 πμ
An exei kapoios to De les kouventa , tha ithela na to do :)


Τίτλος: Απ: Παρτιτούρες για Μπαγλαμά Τζουρά 3χορδο μπουζούκι...
Αποστολή από: nikosilluminati στις Μάρτιος 13, 2011, 01:27:52 μμ
Παιδια για οποιον ενδιαφερεται και για παρτιτουρες κατεβασα απο ενα torrent site γυρω στις 1500 παρτιτουρες για μπουζουκι και κιθαρα. Στειλτε μου πμ να σας πω που ειναι ή να στειλω το αρχειο. Το μονο θεμα ειναι οτι οι τιτλοι δεν εμφανιζονται σωστα και θελει ταξινομηση.

Νικος


Τίτλος: Απ: Παρτιτούρες για Μπαγλαμά Τζουρά 3χορδο μπουζούκι...
Αποστολή από: Jpon στις Μάρτιος 15, 2011, 03:28:13 πμ
Την κομματάρα "Χαρέμια με διαμάντια" του Τσιτσάνη με το απίστευτο μπουζούκι,την ξέρει κανένας να την μοιραστεί μαζί μας?


Τίτλος: Απ: Παρτιτούρες για Μπαγλαμά Τζουρά 3χορδο μπουζούκι...
Αποστολή από: Pavlos Pag στις Μάρτιος 16, 2011, 06:50:38 μμ
ΙΣΤΟΡΙΑ ΜΟΥ ΑΜΑΡΤΙΑ ΜΟΥ - ΒΟΗΘΕΙΑ
   COUPLE

             1η-2-2-0-2 - - 2- - -0- - -0-2-3-3-2- -( 2-0-3-2)- -2-2-0-2- -2- - -0- -0-5-3-2- -(2-1-3-2)
             2η - - - - - - - -  -3- - - - - - - - - - - - - - - - - - - - - - - - -  - 3- - - - - - - - - - - - - -
             3η- - - - - - - - - - - - - - - - - - - - - - - - - - - - - - - - - - - - - - - - - - - - - - - - - - -

            1η-2-3-2-0-0- -0- - -0-0- -2- - - - - - - -- -2-2-2-3-3-3-3-3-3-6-6-6-6- - - -7-7-7- - - - - -7-7-7-7
            2η- - - - - - - - -   3- - - -  - 3-2-0(0-2-3-0)- - - - - - - - - - - - - - - - - 8-7- - -  --7-7-7-
            3η- - - - - - - - - - - - - - - - - - - - - - - - - - - - - - - - - - -- - -- - - - - - - - - - - - - - - - - - --


            1η -(2-2-2-3-3-3-3-3-3-6-6-6-6-- - - 7-7-7---------7-7-7-7
            2η- - - - - - - - - - - - - - - - - -8-7-- - - - -7-7-7--- - --
            3η- - - ----- - - --- - - - - - - - - - - - - - - - - - - - - - -)


                REFREN

            1η-7-9-10- - -9-7- -5-3-5- -3-2- - -0- -2-3-5-3-2- -(2-1-3-2)
            2η- - - - - - - - - - - - - - - -- - - - - - - - - - - - - - - - - - -
            3η- - - - - - - - - - - - - - - - - - - - - - - - - - - - - - - - - - -


   1η-7-9-10- - -9-7- -5-3-5- -3-2- - -0- -0- - -2-0- - - - - 2-3
   2η- - - - - - - - - - - - - - - - - - - - - - - - - - - - -3-2-0-3-3
   3η- - - - - - - - - - - - - - - - - - - - - - - - - - - - - - - - - -

Ρε παίδες βρήκα αυτό το τραγούδι στο site, που το έψαχνα και πολύ καιρό,, αλλά νομίζω ότι τα σημεία που έχω κοκκινίσει δε βγαίνουν σωστά. μπορεί να βοηθήσει κάποιος;


για  το  couple  εκι  βάλε     1η      2-3-5- - 0-2-3-2

και  στο  ρefren    1η    0-0

                         2η           3-2-3-0               












Τίτλος: Απ: Παρτιτούρες για Μπαγλαμά Τζουρά 3χορδο μπουζούκι...
Αποστολή από: kosgia alaniaris στις Μάρτιος 16, 2011, 07:06:05 μμ
Ευχαριστώ φίλε! μια χαρά το έστειλες ;)


Τίτλος: Απ: Παρτιτούρες για Μπαγλαμά Τζουρά 3χορδο μπουζούκι...
Αποστολή από: Skalomatias στις Μάρτιος 16, 2011, 09:46:38 μμ
Μπράβο ρε παιδιά κάνετε πολύ καλή δουλειά........
Σαν αρχάριο με έχετε βοηθήσει πάρα πολύ....
Θα ήθελα αν ξέρει κανείς δύο τραγουδάκια του Σκαρβέλη το Μα τι να κάνω σ'αγαπώ και το πονώ δεν με λυπάσαι....Απ'οτι καταλαβαίνω είναι σχεδόν τα ίδια....Και τέλος αν γίνεται και το φέρτε πρέζα να πρεζάρω..
Συνεχίστε την καλή δουλειά και καλές πενιές....

http://www.youtube.com/watch?v=7TRpK93ZC44

http://www.youtube.com/watch?v=idomGmkpSjo

http://www.youtube.com/watch?v=4LmMSA6UeVw&feature=related


Τίτλος: Απ: Παρτιτούρες για Μπαγλαμά Τζουρά 3χορδο μπουζούκι...
Αποστολή από: χρηστος στις Μάρτιος 16, 2011, 11:37:30 μμ
καλησπερα σε ολους ,,,παιζει να ανεβασει κανεις το ΝΑ ΤΑΝΕ ΤΟ 21

http://www.youtube.com/watch?v=6LbEWVm1rqc (http://www.youtube.com/watch?v=6LbEWVm1rqc)

εχει κολησει η μεγαλη μου κορη ,,να το μαθω και αυτη να το τραγουδαει ,,
οχι για μενα για την κακομοιρα την κορη μου  :D


Τίτλος: Απ: Παρτιτούρες για Μπαγλαμά Τζουρά 3χορδο μπουζούκι...
Αποστολή από: koyrkoylakos antonios στις Μάρτιος 17, 2011, 06:13:22 μμ
μαγγες ειπα του ρεμπετη να δωσει το οι μερακληδες τσιτσανης τραααααααγουδααααρα?!!!


Τίτλος: Απ: Παρτιτούρες για Μπαγλαμά Τζουρά 3χορδο μπουζούκι...
Αποστολή από: Pavlos Pag στις Μάρτιος 17, 2011, 09:35:01 μμ
           ΝΑ  ΤΑΝΕ  ΤΟ  21  


   INTRO

   1η   12- - -12- -15- -14-12-11-12-14- - - -12- - - 12- - 15- - 14-12-15-14-12
   2η     -  12- - - - - - - - - - - - - -  - -12- - - -12- - - - - - - - - - - - - - - -              } χ2
   3η   - - - - - - - - - - - - - - - - - - - - - - - - - - - - - - - - - - - - - - -- - -  

   1η  12-14-15-17- -17- -15-17- -17- -15-17-19-19 -12-14-15-17- -17- -15-19-17-15-14-15
   2η   - - - - - - - - - - - - - - - - - - - - - - - - - - - - - - - - - - - - - - - - - - - - - - - - -
   3η  - - - - - - - - - - - - - - - - - - - - - - - - - - - - - - - - - - - - - - - - - - - - - - - - -

  1η   15-17-15-14-12-14-15-17- -17- -15-17- -17- -15-17-19-19 -12-14-15-17-19-21-22-19-
  2η   - - - - - - - - - - - - - - - - - - - - - - - - - - - - - - - - - - - - - - - - --  - - - - - - - 
  3η  - - - - - - - - - - - - - - - - - - - - - - - - - - - - - - - - - - - - - - - - - - - - - - - - - 


   1η  19,21,1917,19,1715,17,15,14,15,14,12- - - -12
   2η  - - - - - - - - - - - - - - - - - - - -  - - -12-
   3η  - - - - - - - - - - - - - - - - - - - - - - - - - - - -

    
     COUPLE

   1η  15- -15- -14- -14- -12- -12- -14- -15- - -12-12-14- -15-14- - - - - -12- -12- -10- -10- -
   2η  - - - - - - - - - - - - - - - - - - - - - - - - - - - - - - - - - - - - -12- - - - - - - - - - - - - -
   3η  - - - - - - - - - - - - - - - - - - - - - - - - - - - - - - - - - - - - - - - - - - - - - - - - - - - -

   1η  8- -7- - - - -12- -11-11-8- -8- -7- - -
   2η  - - - --10- - - - - - - - - - - - - - - - -
   3η  - - - - - - - - - - - - - - - - - - - - - - -


   1η  15- -15- -14- -14- -12- -12- -14- -15- - -12-12-14- -15-14- - - - - -12- -12- -10- -10- -
   2η  - - - - - - - - - - - - - - - - - - - - - - - - - - - - - - - - - -  - -12- - - - - - - - - - - - - -
   3η  - - - - - - - - - - - - - - - - - - - - - - - - - - - - - - - - - - - - - - - - - - - - - - - - - - -

   1η  8- -7- - - - -12- - - 14-14-15- -14- -12
   2η  - - - - -10- - - - - - - - - - - - - - - - -  -
   3η  - - - - - - - - - - - - - - - - - - - - - - - - - -
   REFREN
  

   1η  12-14-15-17- -17- -15-17- -17- -15-17-19-19 -12-14-15-17- -17- -15-19-17-15-14-15
   2η   - - - - - - - - - - - - - - - - - - - - - - - - - - - - - - - - - - - - - - - - - - - - - - - - -
   3η  - - - - - - - - - - - - - - - - - - - - - - - - - - - - - - - - - - - - - - - - - - - - - - - - - -

  1η   15-17-15-15-15-12-14-15-17- -17- -15-17- -17- -15-17-19- 12-14-15-17-19-21-22-19-
  2η   - - - - - - - - - - - - - - - - - - - - - - - - - - - - - - - - - - - - - - - - -
  3η  - - - - - - - - - - - - - - - - - - - - - - - - - - - - - - - - - - - - - - - - - -


   1η  19,21,1917,19,1715,17,15,14,15,14,12- - - -12
   2η  - - - - - - - - - - - - - - - - - - -  - - - -12- - -
   3η  - - - - - - - - - - - - - - - - - - - - - - - - - -  

   1η  15- -15- -14- -14- -12- -12- -14- -15- - -12-12-14- -15-14- - - - - -12- -12- -10- -10- -
   2η  - - - - - - - - - - - - - - - - - - - - - - - - - - - - - - - - - - - - -12- - - - - - - - - - - - - -
   3η  - - - - - - - - - - - - - - - - - - - - - - - - - - - - - - - - - - - - - - - - - - - - - - - - - - -

   1η  8- -7- - - - -12- - - 14-14-15- -14- -12- - - - - - 11-12- -11-12
   2η  - - - - - -10- - - - - - - - - - - - - - - -   -12-13- - - - - - 12-12
   3η  - - - - - - - - - - - - - - - - - - - - - - - - - - - - - - - - - - - - - - - - -

    καλή  επιτυχία  να  έχετε



Τίτλος: Απ: Παρτιτούρες για Μπαγλαμά Τζουρά 3χορδο μπουζούκι...
Αποστολή από: billycrete στις Μάρτιος 20, 2011, 10:58:48 μμ
παιδια μηπος εχει καποιος απο εσας το "πηρα τον δρομο τον στενο" το παπαιωαννου??? προσπαθω να το βγαλω μονοσ μου αλλα δεν τα καταφερνω με τιποτα!!!!!!!!! αν το εχει καποιος ας το ανεβασει.. θα βοηθισει παρα πολυ και εμενα αλλα και πολους αλους..!! ευχαριστω


Τίτλος: Απ: Παρτιτούρες για Μπαγλαμά Τζουρά 3χορδο μπουζούκι...
Αποστολή από: billycrete στις Μάρτιος 21, 2011, 05:31:12 μμ
η εστω στο περιπου και θα το ποβγαλω μονος μου.. please!! η το "που θα βρω γηνεκα να σου μιαζει".!! τοσοι καλητεχνες ειστε εδω μεσα απ'οτι ειδα, καποιος θα τα ξερει δεν μπορει..!!!


Τίτλος: Απ: Παρτιτούρες για Μπαγλαμά Τζουρά 3χορδο μπουζούκι...
Αποστολή από: ΜΑΚΗΣ στις Μάρτιος 22, 2011, 01:05:24 πμ
   ΔΕΚΑ ΠΑΛΙΚΑΡΙΑ



   Δέκα παλ/ρια
1) 7/7--5/5—3-3
2) ------------3

 Στησ   νεχο ρο         γύρισμα
1) 8/8--7/7--5              5/7/8

Στου κα   ραι  σκάκι
1) 10/10/--8/8--7/7--8/8--7—5--3/2--0
2) -------------------------------------3

πέφτουν
1) 7/7--5/5—3-3
2) ------------3

  απο                            γύρισμα
1) 8/8--7/7--5              5/7/8
   Κι απο
1) 10/10/--8/8--7/7--8/8--7—5--3

                    R
            κιοληνυχτα
1) 3/5/7-8/8/8-10-8-7/7-8-7-5/5-7-3-5-7

   κιολη   
1) -8/8/8-10-8-7/7-8-7-5/5-3-3


Τίτλος: Απ: Παρτιτούρες για Μπαγλαμά Τζουρά 3χορδο μπουζούκι...
Αποστολή από: χρήστος στις Μάρτιος 24, 2011, 01:44:12 μμ
Καλησπέρα παιδιά. Λοιπόν είμαι καινούργιος στην φάση "τρίχορδο". Μέχρι τώρα ήμουν τετράχορδο(μπάσο) και εξάχορδο(κιθάρες). Έχω ένα μπαγλαμαδάκι εδώ και κανα δίμηνο και έχω πάθει την πλακάρα μου με την δουλειά που έχετε κάνει στην ιστοσελίδα! Είστε φοβεροί. Θα προσπαθήσω να συνδράμω κι εγώ ότι γίνεται. Να'στε καλά!


Τίτλος: Απ: Παρτιτούρες για Μπαγλαμά Τζουρά 3χορδο μπουζούκι...
Αποστολή από: χρήστος στις Μάρτιος 24, 2011, 03:02:13 μμ
Λοιπόν δεν γνωρίζω αν το έχει ανεβάσει άλλος νωρίτερα αλλα θα προσθέσω την "Συννεφιασμένη Κυριακή" από έναν δίσκο όπου το παίζει ο Τσιτσάνης σε μπαγλαμά και είναι σόλο μπαγλαμάς. Προκαταβολικά συγνώμη για τυχόν λάθη.


Εισαγωγή
1η:------------------11-9---11-9---12-12-12-12---12-[14]-[14]--0-0-7-9-7-5-4-2-5-4-2-0------
2η:-0-555-7-9-10-12-----12------12------------12----[12]-[12]-------------------------5-4-2-0
3η:---------------------------------------------------------------------------------------------

1η:-5-4-2-0---4--0-------
2η:----------0--0--------
3η:----------------------

Στίχοι
1η:-000-222-0-2-4-5-2-4-------------4-5-7-4----4-555-4-2-0--7-575-454-242-020--0000000---
2η:----------------------0-5-5-5-5-7---------5-7----------------------------------------------
3η:-------------------------------------------------------------------------------------------

1η:---------------------7-9-11-9-7-12-12-0-2-2-000-9-7-5-4-2-5-4-2-0------------
2η:-4-5-6-7-7-7-7-9-10------------------------------------------------------------
3η:--------------------------------------------------------------------------------

1η:---------------------7-9-11-9-7-12-12-0-2-2-000-9-7-5-4-2-5-4-2-0------------
2η:-4-5-6-7-7-7-7-9-10------------------------------------------------5-4-2-0---------
3η:-----------------------------------------------------------------------------5-4-2-0-

μετά ξανά η εισαγωγή κ.ο.κ.


Τίτλος: Απ: Παρτιτούρες για Μπαγλαμά Τζουρά 3χορδο μπουζούκι...
Αποστολή από: Νικόλαος στις Μάρτιος 26, 2011, 12:17:48 μμ
θα μπορουσε καποιος να στειλει το '' ΨΕΥΤΙΣΕ ΠΛΕΟΝ Ο ΝΤΟΥΝΙΑΣ''


Τίτλος: Απ: Παρτιτούρες για Μπαγλαμά Τζουρά 3χορδο μπουζούκι...
Αποστολή από: marKiS στις Μάρτιος 27, 2011, 05:17:06 μμ
   
Tablature

THELO MASTOURIS NA GINO
Marko Vamvakaris 1934
D Huzam, Zebekiko


Part A:
(5 4 3 4 5) 3 4 5 4 7 6 7 9 10 7
7 10 9 7 6 9 7 6 7 4 (5 4 3 4 5)
7 9 9 10 10 9 9 7 7 6 7 7 10 9 7
7 9 12 10 9 7 7 5 4 3 0

Part B (vocal):
10 9 7 6 9 7 6 7 (5 4 3 4 5)
10 9 7 6 9 7 6 7 (5 4 3 4 5)
7 7 9 10 10 10 9 9 7 7 7 10 9 7
7 7 9 12 10 9 7 7 5 4 3 0


Τίτλος: Απ: Παρτιτούρες για Μπαγλαμά Τζουρά 3χορδο μπουζούκι...
Αποστολή από: paleokostas στις Μάρτιος 27, 2011, 07:58:20 μμ
μπορεί κάποιος να ανεβάσει το <ΕΡΗΝΑΚΙ> του ΣΚΑΡΒΕΛΗ???ενα απο τα αγαπημένα μου τραγούδια!!!
ΕΥΧΑΡΙΣΤΩ ΚΑΙ ΣΥΝΕΧΙΣΤΕ ΤΗΝ ΠΟΛΥ ΚΑΛΗ ΔΟΥΛΕΙΑ ;D!!


Τίτλος: Απ: Παρτιτούρες για Μπαγλαμά Τζουρά 3χορδο μπουζούκι...
Αποστολή από: Loukas στις Μάρτιος 28, 2011, 06:03:56 μμ
Παιδιά καταπληκτική δουλειά πραγματικά!!!!
Μπράβο σε όσους ασχολήθηκαν κ έγινε όλο αυτό!!!
Με τη σειρά μου θα ήθελα να ρωτήσω αν μπορει κάποιος να βγάλει με το αυτί, το τραγούδι με το οποίο ξεκίνησαν οι ολυμπιακοί αγώνες του 2004... Παραθέτω το λινκ για το video sto utube... Ξεκινάει περίπου στο 1,35!!

http://www.youtube.com/watch?v=ZlUOJdX8lYA&t=1m35s

Eυχαριστώ πολύ για όποιον μπορέσει να ασχοληθεί!!! :)


Τίτλος: Απ: Παρτιτούρες για Μπαγλαμά Τζουρά 3χορδο μπουζούκι...
Αποστολή από: ΜΑΚΗΣ στις Μάρτιος 28, 2011, 09:33:11 μμ
Ο ΔΡΟΜΟΣ

   ο δρ
1) --7-8-7-5-3---3-5-7-3-5-5
2) 3------------3---------

γύρισμα
1) 5-0--0-5
2) ----1---

Κάποιος           
1) 5-7-8-7-5-3-0-------7-5-3
2) ---