ΜΟΥΣΙΚΗ => Ταμπλατούρες => Μήνυμα ξεκίνησε από: middlefinger στις Νοέμβριος 05, 2006, 11:45:33 μμ



Τίτλος: Άσιμος Νικόλας
Αποστολή από: middlefinger στις Νοέμβριος 05, 2006, 11:45:33 μμ
αν μπορει καποιος να γραψει καμια ταμπλατουρα για ασιμο σε κιθαρα
(κατα προτιμισει το παρατα τα ...)


αν εχει και για μπουζουκι...δεκτο...thx!


Τίτλος: Παράτα τα
Αποστολή από: neyrikos_klonismos στις Νοέμβριος 06, 2006, 12:42:42 πμ
Em                B                  Em
Παράτα το σχολειό, παράτα αυτό το χάλι
               B                 Em
Να είσ’ αφεντικό του εαυτού σου πάλι
Παράτα τα θρανία και τ’ αμφιθέατρα
Να ‘ρθης στη παραλία να κάνουμ’ έρωτα
 
Παράτα τη δουλειά, παράτα τη τη σκρόφα
Και κοίτα πως εσύ θ’ αποφασίζεις πρώτα
Χιλιάδες σουπερμάρκετ γεμάτα πράματα
Γιατί δεν τα βουτάμε για τα γεράματα;
 
Παράτα το θεό, πατέρα και παρτάλι
Μη θέλεις παντρειά και μισθωτό χαμάλη
Αρνήσου να ‘σαι σκλάβα διπλά κι ολόιδια
Θα ζήσουν τα παιδιά μας μεσ’ τα κοινόβια
 
Παράτα το λοιπόν, παράτα το το κόμμα
Μη θες να κουβαλάς το κουρδιστό σου πτώμα
Της κεντρικής γαϊδάρας να είσ’ ερμηνευτής
Αρνήσου να ‘σαι χάφτης και καθοδηγητής
 
Κατούρα στη βουλή και σπάστους τα γραφεία
Να πάει να πνιγεί κι η γραφειοκρατία
Και φόρεσε κουκούλα ωσάν σε πρήζουνε
Σε κάθε αναμπουμπούλα μη σε γνωρίζουνε
 
Παράτα το στρατό το προβατοποιείο
Και ας μας έχουνε για το τρελοκομείο
Για μια χαζή πατρίδα οπλίζουν τους λαούς
Δεν κάνει η ιεραρχία για τους αναρχικούς
 
Στην κοινωνία αυτή σαπίσαμε στ’ αλήθεια
Απάνθρωποι θεσμοί μας γίνανε συνήθεια
Παράτησέ τα όλα να ζήσουμ’ άβολα
Οι άλλοι όπως βαδίζουν κι εμείς ανάποδα


Τίτλος: Δεν πα να μας χτυπάν
Αποστολή από: krana στις Μάιος 13, 2011, 03:09:32 μμ
Δεν πα να μας χτυπάν

Μουσική/Στίχοι: Νικόλας Άσιμος
Δίσκος: Παράνομη Κασέτα Νο.000001 ''Το βαρέλι που για να βγει το σπάει'' (1978)



(Em) B/Em       F#/B7   A/B7          (F#) Em
Δεν πα να μας χτυπάν με όλμους και κανόνια
δεν πα να μας χαλάν τα πιο όμορφά μας χρόνια
        D#/B7          B/Em    D#/B7            Am Em
κι αυτοί που μας μιλούν πως θέλουν το καλό μας
    B/Em           F#/B7  A/B7     (F#) Em
ποτέ τους δεν ακούν το δίκιο το δικό μας

Δεν είναι αυτή ζωή κι από τ' αφεντικά μας
δεν είναι ανθρώπινα τα μεροκάματά μας
αυτοί καλοπερνούν και 'μεις αγωνιάμε
αν θα 'χουμε δουλειά για να 'χουμε να φάμε

Το δίκιο μας εμπρός να βγάλουμε στους δρόμους
μπουρλότο και φωτιά σε κράτος κι αστυνόμους
τον ξέρουμε καλά της γης μας τον αφέντη
μας έμαθε πολλά το αίμα του Νοέμβρη

Δε πα να μας χτυπάν με όλμους και κανόνια
δεν πα να μας χαλάν τα πιο όμορφά μας χρόνια
θα βάλουμε μπροστά τη μαύρη και την κόκκινη σημαία
για μας για μια ζωή πιο λεύτερη πιο νέα


"Πάνω στα ματωμένα πουκάμισα των σκοτωμένων εμείς καθόμασταν τα βράδια
και ζωγραφίζαμε σκηνές απ' την αυριανή ευτυχία του κόσμου."

Έτσι γεννήθηκαν οι σημαίες μας.


Θα βάλουμε μπροστά τη μαύρη και την κόκκινη σημαία
μ' αγώνα η λευτεριά μας είναι αναγκαία



Σημειώσεις: στις συγχορδίες το πρώτο γράμμα (πριν την κάθετο) είναι η νότα που παίζεται σαν μπάσο για να ταιριάζει με τη μελωδία. Οι συγχορδίες σε παρένθεση μπορούν να παιχτούν σαν νότες-μπάσα για να γεμίσει το κομμάτι. Και να μην παιχτούν όλ' αυτά δεν τρέχει και τίποτα.


     Em         B7                  Em
e|--------------------------------------|
B|--------------------------------------|
G|----4----------------2----------------|
D|--2-----5-4--2-4---4-----4-1--4-4--2--|
A|--------------------------------------|
E|--------------------------------------|
      Em         B7                  Em
e|--------------------------------------|
B|--------------------------------------|
G|----4----------------2----------------|
D|--5-----5-4--2-4---4-----4-1--4-4--2--|
A|--------------------------------------|
E|--------------------------------------|
       B7      Em     B7     Am Em
e|---------------------------------|
B|---------------------------------|
G|----------2--4-----------2--5-4--|
D|--2--1---4--4----2--1---4--4-----|
A|---------------------------------|
E|---------------------------------|
       Em        B7                  Em
e|--------------------------------------|
B|--------------------------------------|
G|--4--4---------------2----------------|
D|--------5-4--2-4---4-----4-1--4-4--2--|
A|--------------------------------------|
E|--------------------------------------|


Τίτλος: Θα 'ρθω να σε βρω
Αποστολή από: krana στις Αύγουστος 28, 2012, 04:12:53 μμ
Θα 'ρθω να σε βρω (Νικόλας Άσιμος)

Μουσική/Στίχοι: Νικόλας Άσιμος
Δίσκος: Ζωντανή ηχογράφηση στο Αττικόν (1991)



 Cm                                               Cm
Θα 'ρθω κάνα βράδυ να σε βρω και το μυστικό μου να σου πω
Cm                                     Fm                 Eb             Bb                Cm
το 'ψαξα πολύ για να το πω σε σένα κι ας το θεωρήσουν παλαβό
Μέσα απ' τα σκοτάδια κι απ' το φως είμαι εγώ ο γιος του καθ' ενός
με τη λευτεριά μου έχω γίνει ένα και δεν είμαι πιόνι κανενός

  Cm      Fm  Cm           Cm  Fm   Cm
Στα παιχνίδια όλων σας έκανα χαλάστρα
 Cm    Fm       Eb Bb     Cm
για κανέναν πούστη δε θυσιάζομαι
μ' έχουν και για ανόητο και χαμένη φάτσα
μα στην αγκαλιά σου εκστασιάζομαι

BbFm      BbFm BbFm    BbFm
Όσο κι αν θέτε δε θα με πάτε
 Bb Fm      Bb Fm EbBb    Cm
κει που πλανάται η βία κι η αποχαύνωση
Πίστη δεν έχω μήτε πατρίδα
με διώξατε όλοι μα σένα σε θέλω ζωντανή

Solo (Cm Bb Fm Eb Bb) x2


Δεν το λέω για να παινευτώ ζήταγα πολύ να αγαπηθώ
έδωσα τα πάντα και τα ξαναδίνω και γι' αυτό μπορώ να σ' αγαπώ
Δε θα με γνωρίσεις θα με δεις είμαι κυνηγός κι ονειρευτής
μη σε παγιδέψουν σε καμιά βιτρίνα και σε παραδείσους μου χαθείς

Δε ζω με τους νόμους σας τα χαρτιά και τ' άστρα
για να τη βολέψω εγώ δε νοιάζομαι
Όσα μ' αποξένωσαν ψεύτικα ήταν κάστρα
και έχω βγεί απ' έξω δεν τα χρειάζομαι

Σε τούτο τον παλιόκοσμο ένας να έ- να έμενε
κι ας θέλει η άρια φύση σου κι εκείνος θα διαβρωθεί
Αγάπησέ με βλέμμα μου βοήθησέ με αίμα μου
δύσκολο να πεθάνουμε καρδιά μου λυπάμαι τη ζωή

Solo



Verse:
    Cm                           Cm
                         /  / \                       /  / \
e|-----------------------3--3-3-----------------------3--3-3--|
B|-----------------------4--4-4-----------------------4--4-4--|
G|------3-5-3------------5--5-5------3-5-3------------5--5-5--|
D|--5-6-------6-5-3-5----5--5-5--5-6-------6-5-3-5----5--5-5--|
A|-----------------------3--3-3-----------------------3--3-3--|
E|-----------------------3--3-3-----------------------3--3-3--|

    Cm                 Fm         Eb Bb         Cm
                       \ /  / \   \  \ / \  \ / \
e|---------------------1-1--1-1---3--1-1-1--1-1-3~--|
B|---------------------1-1--1-1---4--3-3-3--3-3-4~--|
G|------3-5-3----------2-2--2-2---3--3-3-3--3-3-5~--|
D|--5-6-------6-5-3-3--3-3--3-3---5--3-3-3--3-3-5~--|
A|---------------------3-3--3-3---6--1-1-1--1-1-3~--|
E|---------------------1-1--1-1---3--1-1-1--1-1-3~--|


Solo:
    Cm              Bb                 Fm   Eb   Bb
e|-------------------------------------1~---3~---1~--|
B|-------------------------------------1~---4~---3~--|
G|------3-5-3--------------------------1~---3~---3~--|
D|--5-6-------6-5-3---------3-5-3-1-3--3~---5~---3~--|
A|--------------------3-5-6------------3~---6~---1~--|
E|------------------6------------------1~---3~---1~--| x2
1:38




www.youtube.com/watch?v=baWjhN6_71E


Τίτλος: Αγαπάω κι αδιαφορώ
Αποστολή από: sotirisr στις Νοέμβριος 23, 2012, 02:31:46 μμ
                     ΑΓΑΠΑΩ ΚΙ ΑΔΙΑΦΟΡΩ


εισαγωγη:Em x2

         ΜΙ(ΚΑΤΩ)-ΣΟΛ-ΣΙ-ΜΙ(ΠΑΝΩ)-ΜΙ(ΠΑΝΩ)-ΣΟΛ-ΣΙ-ΜΙ(ΚΑΤΩ)


δηλαδη:  
                                                               x2 και στο τελος:
e|-----------0--0------------------0--0-------------------------0--------------|
B|--------0-------0-------------0-------0-----------------------0--------------|
G|-----0------------0---------0-----------0---------------------0--------------|
D|--2------------------2----2---------------0-------------------2--------------|
A|-----------------------------------------------------------------------------|
E|-----------------------------------------------------------------------------|




Em                         B                    Em

ΜΙ-ΦΑ#-ΣΟΛ-ΛΑ-ΣΟΛ-ΦΑ#- ΜΙ-ΜΙ
Α- γα-       πά---ω  και   αδια- φο-ρώ

Em                                     B                        Em

ΜΙ- ΦΑ#-ΣΟΛ-ΛΑ-ΣΟΛ-ΦΑ#-ΦΑ#-ΣΟΛ-ΦΑ#-ΜΙ-ΜΙ

και  κρα-   τά -   ω  τον   κα-   τά-    λλη-λο    χο-ρό

Em                                           B                  Em

ΜΙ-ΦΑ#-ΣΟΛ-ΛΑ-ΣΟΛ-ΦΑ#-ΦΑ#-ΜΙ-ΦΑ#-ΦΑ#-ΜΙ

Το  λοι-  πόν   θα   α-   γα-    πά-   ω   και     μέ-να

B    Em          B       Em

ΣΟΛ-ΦΑ#-ΜΙ-ΦΑ#-ΜΙ

ό-     πως    ε- σέ-  να
 

   γεφυρα:

e|-----------0--0------------------0--0-------------------------0--------------|
B|--------0-------0-------------0-------0-----------------------0--------------|
G|-----0------------0---------0-----------0---------------------0--------------|
D|--2------------------2----2---------------0-------------------2--------------|
A|-----------------------------------------------------------------------------|
E|-----------------------------------------------------------------------------|



Em                                            Am               B

ΜΙ- ΦΑ#-ΜΙ-ΡΕ#-ΜΙ- ΦΑ#-ΣΟΛ-ΜΙ-ΛΑ-ΣΟΛ-ΦΑ#

Μην πα-  ρα- νο-   είς   τα     λό-  για που’  χω πει

B                                                                    Em

ΦΑ#- ΣΟΛ-ΦΑ#-ΜΙ-ΡΕ#-ΜΙ-ΦΑ#-ΡΕ#-ΣΟΛ-ΦΑ#-ΜΙ

είν’       η   πιο    απ-λή    του  κό  σμου   συ- ντα-γή

B                                                                   Em


ΜΙ- ΦΑ#-ΜΙ-ΡΕ#-ΜΙ- ΦΑ#-ΣΟΛ-ΜΙ-ΛΑ-ΣΟΛ-ΦΑ#

Νιώ-σε    με  για    να   σε     νιώ-σω κιας  πο-νάς

B                                                                   Em

ΦΑ#- ΣΟΛ-ΦΑ#-ΜΙ-ΡΕ#-ΜΙ- ΦΑ#-ΡΕ#-ΣΟΛ-ΦΑ#-ΜΙ

είν’      πα- νά-   κρι-βο   στο  λέ-    ω       ν’ αγα-πάς

B                                                                   Em

ΜΙ- ΦΑ#-ΜΙ-ΡΕ#-ΜΙ- ΦΑ#-ΣΟΛ-ΜΙ-ΛΑ-ΣΟΛ-ΦΑ#

Κοί- τα    με  στα   μά- τια     με    υ-  πο- μο- νή

B                                                                    Em

ΦΑ#- ΣΟΛ-ΦΑ#-ΜΙ-ΡΕ#-ΜΙ-ΦΑ#- ΡΕ#-ΣΟΛ-ΦΑ#-ΜΙ

διώ-   ξε      του  άλ-λου κό- σμου   την       ε- πι-ρροή

B                                                                    Em

ΜΙ- ΦΑ#-ΜΙ-ΡΕ#-ΜΙ- ΦΑ#-ΣΟΛ-ΜΙ-ΛΑ- ΣΟΛ-ΦΑ#

Νιώ- σε    με για   να   σε       νιώ-σω κιας  πο-νάς

B                                                                    Em

ΦΑ#- ΣΟΛ-ΦΑ#-ΜΙ- ΡΕ#-ΜΙ- ΦΑ#- ΡΕ#-ΣΟΛ-ΦΑ#-ΜΙ

είν’      πα- νά-   κρι-βο   στο   λέ-    ω        ν’ αγα-πάς
 
γεφυρα:

                                                                      Χ2
e|-----------0--0------------------0--0-------------------------0--------------|
B|--------0-------0-------------0-------0-----------------------0--------------|
G|-----0------------0---------0-----------0---------------------0--------------|
D|--2------------------2----2---------------0-------------------2--------------|
A|-----------------------------------------------------------------------------|
E|-----------------------------------------------------------------------------|


Αγαπάω και αδιαφορώ
και μαζί σου το ’χω μάθει και αυτό
παραδόξως ν’ αγαπάω και μένα
όπως εσένα
 
γεφυρα:


e|-----------0--0------------------0--0-------------------------0--------------|
B|--------0-------0-------------0-------0-----------------------0--------------|
G|-----0------------0---------0-----------0---------------------0--------------|
D|--2------------------2----2---------------0-------------------2--------------|
A|-----------------------------------------------------------------------------|
E|-----------------------------------------------------------------------------|

Την εικόνα αυτού του κόσμου δεν μπορώ
ούτε μέσα στη σκιά του θα χαθώ
Μάγεψαν και σένανε τα ξωτικά
κάνεις πάλι κύκλους σ’ άλλη αγκαλιά
Και μη μάς τρομάζουν φως μου οι πληγές
στις χρυσές στιγμές μας πλάι και αυτές
Νιώσε με για να σε νιώσω κι ας πονάς
είν’ πανάκριβο στο λέω ν’ αγαπάς
 
Αγαπάω και αδιαφορώ
κι έχω φτιάξει έναν καινούργιο εαυτό
τώρα πια με αγαπάω και μένα
όπως εσένα








Τίτλος: Venceremos
Αποστολή από: sotirisr στις Δεκέμβριος 15, 2012, 04:22:56 μμ
                       Venceremos




Am       G                C                     Dm       Am                          E

ΛΑ- ΛΑ-ΛΑ- ΣΙ- ΣΙ- ΣΙ-ΝΤΟ-ΝΤΟ-ΝΤΟ-ΡΕ-ΡΕ-ΜΙ-ΜΙ-ΜΙ-ΜΙ-ΡΕ-ΝΤΟ-ΣΙ
Απο-  κο-μμέ-νος απ’  όλ-ους   κι    απ’ όλ-α, σε    μα-γε-μέ-νη τρο-χιά

Am       G               C                       Dm      Am                         E

ΛΑ-ΛΑ-ΛΑ-ΣΙ- ΣΙ-ΣΙ-ΝΤΟ-ΝΤΟ-ΝΤΟ-ΡΕ-ΡΕ- ΜΙ-ΜΙ-ΜΙ-ΜΙ-ΡΕ-ΝΤΟ- ΣΙ
Πή- ρα το  δρό-μο να φύ- γω, μα   ήρ-θα,   τί-πο-τα   δεν  μ’ακου-μπά
    
            Dm         E  Am     E

ΛΑ-  ΣΙ-ΡΕ-ΝΤΟ-ΣΙ-ΛΑ-ΣΟΛ-ΛΑ
Στον πα-ρά-ξε-νό    μου χρό-νο
 

Am          G           C        Dm      Am           Dm         Am        Dm

ΛΑ-ΛΑ-ΣΙ-ΣΙ-ΝΤΟ-ΝΤΟ-ΡΕ-ΡΕ-ΜΙ-ΜΙ-ΜΙ-ΡΕ-ΡΕ-ΜΙ-ΜΙ-ΜΙ-ΡΕ-ΝΤΟ
Ξέρ-  ου-με πως εί-   ναι   ψέ-μα, μα ας   γί-νου-με τα  δυο   μας έ-να

Am          G          C          Dm         Am      Dm        Am                   Dm

ΛΑ-ΛΑ-ΛΑ-ΣΙ- ΣΙ-ΝΤΟ-ΝΤΟ-ΝΤΟ-ΡΕ-ΡΕ-ΜΙ-ΜΙ-ΜΙ-ΡΕ-ΡΕ-ΜΙ-ΜΙ-ΜΙ-ΡΕ-ΝΤΟ
Να  σ’ αγκα-λιά-σω, να  μ’ αγκα-λιά-σεις, να ξε-γε-λιέ-σαι, να ξε-γε-λιέ-μαι

Am          G         C         Dm     Am        Dm    Am                     Dm

ΛΑ-ΛΑ-ΛΑ-ΣΙ-ΣΙ-ΝΤΟ-ΝΤΟ-ΝΤΟ-ΡΕ-ΡΕ-ΜΙ-ΜΙ-ΜΙ-ΡΕ-ΡΕ-ΜΙ-ΜΙ-ΜΙ-ΡΕ-ΝΤΟ
Να  σ’ αγα-πή-σω, να   μ’  αγα-πή-σεις, έ-στω για λί-γο, για το-σο-δού-λι

Am

ΛΑ-ΝΤΟ-ΜΙ-ΡΕ-ΝΤΟ-ΛΑ-ΣΙ-ΝΤΟ-ΡΕ-ΜΙ
Σαν ζευ-γα-ρώ-νουν δυο βε-γγα-λι-κά

Am

ΛΑ-ΣΙ-ΝΤΟ-ΜΙ-ΡΕ-ΝΤΟ-ΣΙ-ΛΑ-ΛΑ-ΣΙ-ΝΤΟ-ΡΕ-ΜΙ
Μοιά-ζουν με μη-νύ-μα- τα τη-λε-πα-θη- τι-κά

        Dm               E  Am   E

ΛΑ-ΣΙ-ΡΕ-ΝΤΟ-ΣΙ-ΛΑ-ΣΟΛ-ΛΑ
Στων προ-σώ-πων μας τις ζά-ρες
 

Am      G        C                  Dm          Am                          E

ΛΑ-ΛΑ-ΛΑ-ΣΙ-ΣΙ-ΣΙ-ΝΤΟ-ΝΤΟ-ΝΤΟ-ΡΕ-ΡΕ-ΜΙ-ΜΙ-ΜΙ-ΜΙ-ΡΕ-ΝΤΟ-ΣΙ
Με δί- χως ση-μαίες και δί-χως ι-  δέες, δί-χως κα-βά-τζα κα-μιά

Am       G        C                Dm          Am                           E

ΛΑ-ΛΑ-ΛΑ-ΣΙ-ΣΙ-ΣΙ-ΝΤΟ-ΝΤΟ-ΝΤΟ-ΡΕ-ΡΕ-ΜΙ-ΜΙ-ΜΙ-ΜΙ-ΡΕ-ΝΤΟ-ΣΙ
Ντύ-θη-κε η   μέρα τα  γού-στα της νύ-χτας και η ψυ-χή μου πη- δά
 
        Dm             E  Am    E

ΛΑ-ΣΙ-ΡΕ-ΝΤΟ-ΣΙ-ΛΑ-ΣΟΛ-ΛΑ
Στου α- πέ-ρα-ντου την ψί-χα

 
Am   G            C     Dm          Am         Dm            Am         Dm

ΛΑ-ΛΑ-ΣΙ-ΣΙ-ΝΤΟ-ΝΤΟ-ΡΕ-ΡΕ-ΜΙ-ΜΙ-ΜΙ-ΡΕ-ΡΕ-ΜΙ-ΜΙ-ΜΙ-ΡΕ-ΝΤΟ
Θες ν’ αγγί-ξεις την  α-λή-θεια για βγ-ες απ’ όξω απ’ τη συ-νή-θεια


Am   G           C     Dm         Am         Dm              Am         Dm

ΛΑ-ΛΑ-ΣΙ-ΣΙ-ΝΤΟ-ΝΤΟ-ΡΕ-ΡΕ-ΜΙ-ΜΙ-ΜΙ-ΡΕ-ΡΕ-ΜΙ-ΜΙ-ΜΙ-ΡΕ-ΝΤΟ
Σύ-ρε κι έλα  να  με λού-σεις, κι ας εί-ναι της κα-θα-ρευ-ού-σης


Am          G      C          Dm          Am            Dm                     Am       Dm

ΛΑ-ΛΑ-ΛΑ-ΣΙ-ΣΙ-ΝΤΟ-ΝΤΟ-ΝΤΟ-ΡΕ-ΡΕ-ΜΙ-ΜΙ-ΜΙ-ΡΕ-ΡΕ-ΜΙ-ΜΙ-ΜΙ-ΡΕ-ΝΤΟ
Να  σ’  αγκα-λιά-σω, να  μ"α-γκα-λιά-σεις, έ-στω για λί-γο, για το-σο-δού-λι

Am

ΛΑ-ΝΤΟ-ΜΙ-ΡΕ-ΝΤΟ-ΛΑ-ΣΙ-ΝΤΟ-ΡΕ-ΜΙ
Δρε-πα- νη-φό-ρα   άρ- μα-τα  πε-ρνάν

Am

ΛΑ-ΣΙ-ΝΤΟ-ΜΙ-ΡΕ-ΝΤΟ-ΣΙ-ΛΑ-ΛΑ-ΣΙ-ΝΤΟ-ΡΕ-ΜΙ
Στις  τσι-με-ντου-πό-λεις του θα-νά-του το συ-μβάν
 
         Dm             E     Am  E

ΛΑ-ΣΙ-ΡΕ-ΝΤΟ-ΣΙ-ΛΑ-ΣΟΛ-ΛΑ
Α-   συ- γκί-νη-το  σ’α-φή-νει
 
Am      G          C                     Dm              Am                E

ΛΑ-ΛΑ-ΛΑ-ΣΙ-ΣΙ-ΣΙ-ΝΤΟ-ΝΤΟ-ΝΤΟ-ΡΕ-ΡΕ-ΜΙ-ΜΙ-ΜΙ-ΜΙ-ΡΕ- ΝΤΟ-ΣΙ
Σου ξα-να-δί-νω  το εί-ναι μου τώ-ρα,θω-ρα-κι-σμέ-νε και-ρέ

Am       G        C                     Dm               Am                 E

ΛΑ-ΛΑ-ΛΑ-ΣΙ- ΣΙ-ΣΙ-ΝΤΟ-ΝΤΟ-ΝΤΟ-ΡΕ-ΡΕ-ΜΙ-ΜΙ-ΜΙ-ΜΙ-ΡΕ-ΝΤΟ-ΣΙ
Με μια σκλη-ρή, πα-γε-ρή   τρυ-φε-ρά-δα, σε πλ-η-σιά-ζω  μω-ρέ

         Dm             E  Am    E

ΛΑ-ΣΙ-ΡΕ-ΝΤΟ-ΣΙ-ΛΑ-ΣΟΛ-ΛΑ
Μ’   αυ-τα-πά-τες πια δεν έχω

Am   G       C       Dm      Am            Dm          Am             Dm

ΛΑ-ΛΑ-ΣΙ-ΣΙ-ΝΤΟ-ΝΤΟ-ΡΕ-ΡΕ-ΜΙ-ΜΙ-ΜΙ-ΡΕ-ΜΙ-ΜΙ-ΜΙ-ΡΕ-ΝΤΟ
Ξέ- ρου-με πως εί-ναι ψέ-μα, μας ας γίνου-με  τα δυο μας ένα

Am   G       C      Dm       Am            Dm         Am         Dm

ΛΑ-ΛΑ-ΣΙ-ΣΙ-ΝΤΟ-ΝΤΟ-ΡΕ-ΡΕ-ΜΙ-ΜΙ-ΜΙ-ΡΕ-ΡΕ-ΜΙ-ΜΙ-ΜΙ-ΡΕ-ΝΤΟ
Δες,θα φτιά-χνου-με στι-χά-κια, να πε-ρπα-τά-νε σαν κα-βου-ρά-κια

Am   G       C     Dm         Am         Dm          Am         Dm

ΛΑ-ΛΑ-ΣΙ-ΣΙ-ΝΤΟ-ΝΤΟ-ΡΕ-ΡΕ-ΜΙ-ΜΙ-ΡΕ-ΡΕ-ΜΙ-ΜΙ-ΜΙ-ΡΕ-ΝΤΟ
Πλά-για κιακ-ρι-βά    τα χά-δια, φως αχ-νό  μες  στα σκο-τά-δι-α

Am

ΛΑ-ΝΤΟ-ΜΙ-ΡΕ-ΝΤΟ-ΛΑ-ΣΙ-ΝΤΟ-ΡΕ-ΜΙ
Μ’  ένα μου πή-δο    θα σε ξα-να-βρώ

Am

ΛΑ-ΣΙ-ΝΤΟ-ΜΙ-ΡΕ-ΝΤΟ-ΣΙ-ΛΑ-ΛΑ-ΣΙ-ΝΤΟ-ΡΕ-ΜΙ
Στο  μα-γκα-νο-πή-γα-δο της ήτ-τας μου πε-ρνώ
 
      Dm          E Am         E

ΛΑ-ΣΙ-ΡΕ-ΝΤΟ-ΣΙ-ΛΑ-ΣΟΛ-ΛΑ
Βεν-σε-ρέ-μος  Βεν-σε-ρέ-μος
 


Τίτλος: Βαρέθηκα
Αποστολή από: krana στις Δεκέμβριος 11, 2013, 05:32:11 μμ
Βαρέθηκα (Νικόλας Άσιμος)

Μουσική/Στίχοι: Νικόλας Άσιμος
Δίσκος: Ο ξαναπές (1982)




      Bm                               F#                                                   Bm
Βαρέθηκα τη μίζερη μου φύση κανένας πια δε λέει να ξεκουνήσει
      Bm                                     Em                 Bm          F#                                    Bm
κανένας πια δε λέει να ξεκουνήσει αναμφιβόλως δε με χωράει ο τόπος ρε παιδιά


Intro (Bm   F# Em  |  Em   Bm  |  Em   F# Em  |  Em  F# Bm F# Bm)

Βαρέθηκα τα ίδια και τα ίδια τα δάκρυα να κάνω μπιχλιμπίδια
τα λόγια μοναχά μας απομείναν κι οι θεωρίες στην πράξη μας χαλάνε οι θεσμοί


Intro

Βαρέθηκα να λέω πως θ' αλλάξει το σύστημα μας έχει επιτάξει
απόκληρα απομείναμε πουλάκια κυνηγημένα με ξεπουπουλιασμένα τα φτερά


Intro

    Em                                    Bm         F#                                     Bm
Απόκληρα απομείναμε πουλάκια με ξεπουπουλιασμένα τα φτερά


Βαρέθηκα κι αυτό το μονοπάτι ακόμα και σαν βρω κάνα κομμάτι
πώς είναι δυνατό να μαστουριάζεις εξήγησέ μου άμα σου περιφράξαν την καρδιά


Intro

Για πες μου πως μπορείς και μαστουριάζεις άμα σου περιφράξαν την καρδιά

Συνέχεια μου έρχεσαι από πίσω δεν έχω πια το σάλιο να σε φτύσω
πώς γίνεται στον ένα παλαβιάρη εξήγησέ μου κουτόχορτο χιλιάδες να βοσκάν


Intro

Πώς γίνεται στον κάθε παλαβιάρη κουτόχορτο χιλιάδες να βοσκάν


Intro



Riff 1:
    F#                             F#
e|---------------------------|  |--------------0-------------|
B|---------------------------|  |--2---2-1-2-3---3-2-1-2--2--|
G|---------------------------|  |----------------------------|
D|-------------2-5-4-3-4--4--|  |----------------------------|
A|--4---4-3-4-5--------------|  |----------------------------|
E|---------------------------|  |----------------------------|
0:04


Riff 2:
    Bm                       Bm
e|---------------------|  |---------------------|
B|---------------------|  |--------2-3-2--------|
G|---------------------|  |--4-3-4-------4-3-4--|
D|----------0----------|  |---------------------|
A|--2-1-2-4---4-2-1-2--|  |---------------------|
E|---------------------|  |---------------------|
0:13


Riff 3:
    Bm                       Bm
e|---------------------|  |---------------------|
B|---------------------|  |----------------5-7--|
G|---------------------|  |--4-3-4-6-7-6-7------|
D|----------------2-4--|  |---------------------|
A|--2-1-2-4-5-4-5------|  |---------------------|
E|---------------------|  |---------------------|
3:13


Intro:
    Bm       F# Em            Bm    Em       F# Em        F# Bm      F#      Bm
e|------------------------------------------------------------------------------|
B|------------------------------------------------------------------------------|
G|------------------4-4-4--6--7-------------------------------------------------|
D|--------------5----------------4--5-5--2-0----5--4-2-0-------------0----------|
A|--2-2--4-2-4-------------------------------4------------4--2-1-2-4---4-2-1-2--|
E|------------------------------------------------------------------------------|
0:27

Intro:
    Bm       F# Em            Bm    Em       F# Em        F# Bm      F#      Bm
e|------------------7-7-7--9-10-------------------------------------------------|
B|--------------8----------------7--8-8--5------8--7-5--------------------------|
G|--4-4--6-4-6-----------------------------7-6---------7--6--4-3-4-6-7-6-4-3-4--|
D|------------------------------------------------------------------------------|
A|------------------------------------------------------------------------------|
E|------------------------------------------------------------------------------|
0:27



σημ.: οι μελωδίες είναι γραμμένες σε δύο διαφορετικές θέσεις.



www.youtube.com/watch?v=MOKKO3p2NHo


Τίτλος: Μπαγάσας
Αποστολή από: krana στις Αύγουστος 05, 2015, 03:16:35 μμ
ο Μπαγάσας ζητήθηκε (http://www.diymusic.org/forumsmf/index.php?topic=8102.msg38952#msg38952) από τον φίλο agg6los. Τις συγχορδίες έχει βγάλει (http://kithara.to/ss.php?id=ZgcnNdqyvyv_l2rAZN4aMw_-AqLjj7JWKpJXA9vLYuCx8asMc7_LdQsR5y_gm2rERoiabFUst3S5oa0IIb3qB42BKa8o33HJ) πολύ σωστά Το Σκρίπτο του Νέου Κιθαρωδού:


Μπαγάσας (Νικόλας Άσιμος)

Μουσική/Στίχοι: Νικόλας Άσιμος
Κυκλοφορία: Παράνομη Κασέτα Νο.000008 ''Στο φανάρι του Διογένη'' (1987)


Cm                             A#               Cm
Aφήνω πίσω τις αγορές και τα παζάρια
θέλω να τρέξω στις καλαμιές και τα λιβάδια
             D#           A#                  D#             A#              Cm
να ξαναγίνω καβαλάρης και ξαναέλα να με πάρεις ουρανέ
για δεν υπήρξα κατεργάρης και τη χρειάζομαι τη χάρη σου μωρέ

 Cm     A#        Fm Cm A#     Cm
Ρε μπαγάσα περνάς καλά κει πάνω
μιαν ανάσα γυρεύω για να γιάνω
A#           Fm Cm (...)
δεν το πιστεύω να με χλευάζεις σαν σε χαζεύω δε χαμπαριάζεις
Fm Cm A# Cm (...)
πρότεινέ μου κάποια λύση δε θα σου παρακοστίσει

Cm                  D#                  A#
Και θα σου φτιάχνω τραγουδάκια
              D#               A#                   Cm
με τα πιο όμορφα στιχάκια στο ρεφρέν
για το χαμένο μου αγώνα
που τ' αστεράκια μείναν μόνα να τον κλαιν


Aφήνω πίσω το σαματά και τους ανθρώπους
έχω χορτάσει κατραπακιές και ψάχνω τρόπους
πώς να ξεφύγω από τη μοίρα κι έχω μέσα μου πλημμύρα ουρανέ
για δεν υπήρξα κατεργάρης και θα το θες να με φλερτάρεις γαλανέ

Ρε μπαγάσα περνάς καλά εκεί πάνω
κάνε πάσα καμιά ματιά και χάμω
κει που κοιμάσαι και αρμενίζεις ξάφνου αστράφτεις και μπουμπουνίζεις
κι ότι σου 'ρθει κατεβάζεις μη θαρρείς πως με ταράζεις

Γιατί σου φτιάχνω τραγουδάκια
με τα πιο όμορφα στιχάκια στο ρεφρέν
για το χαμένο μου αγώνα
που τ' αστεράκια μείναν μόνα να τον κλαιν


σημ.: οι τελίτσες (...) δίπλα στις συγχορδίες, σημαίνουν ότι επαναλαμβάνεται ακριβώς το ίδιο μοτίβο και στον υπόλοιπο στίχο.


για όσους το παίζουν με κάπο στο 3ο τάστο ή τους βολεύει καλύτερα στη φωνή από Am:


Am                             G                 Am
Aφήνω πίσω τις αγορές και τα παζάρια
θέλω να τρέξω στις καλαμιές και τα λιβάδια
             C               G                   C                G                 Am
να ξαναγίνω καβαλάρης και ξαναέλα να με πάρεις ουρανέ
για δεν υπήρξα κατεργάρης και τη χρειάζομαι τη χάρη σου μωρέ

  Am     G          Dm Am G        Am
Ρε μπαγάσα περνάς καλά κει πάνω
μιαν ανάσα γυρεύω για να γιάνω
G             Dm Am (...)
δεν το πιστεύω να με χλευάζεις σαν σε χαζεύω δε χαμπαριάζεις
Dm Am G Am (...)
πρότεινέ μου κάποια λύση δε θα σου παρακοστίσει

Am                  C                    G
Και θα σου φτιάχνω τραγουδάκια
               C                  G                     Am
με τα πιο όμορφα στιχάκια στο ρεφρέν
για το χαμένο μου αγώνα
που τ' αστεράκια μείναν μόνα να τον κλαιν



Η πρώτη εκτέλεση, από την τελευταία κασέτα που έβγαλε ο Νικόλας το 1987, έναν χρόνο πριν τον θάνατό του (Παράνομη Κασέτα Νο.000008 ''Στο φανάρι του Διογένη''). Συμμετέχει η Σωτηρία Λεονάρδου:


www.youtube.com/watch?v=2UHHLR9XYA8


Η εκτέλεση από τον δίσκο "Το Φανάρι του Διογένη" ο οποίος κυκλοφόρησε από την Lyra Records το 1989, έναν χρόνο μετά το θάνατο του Άσιμου:


www.youtube.com/watch?v=nAh45vCMOBQ


Ανέκδοτη εκτέλεση που κυκλοφόρησε (http://tvxs.gr/news/moysiki/arnithika-polla-ena-syllektiko-binilio-me-eksi-agnosta-tragoydia) μόλις πέρσι σε βινύλιο. Παίζεται από Am κι έχει πολύ μικρές διαφορές στους στίχους:


www.youtube.com/watch?v=uIM4yf6qouM&index=5